PrimaNota.ru - самый крупный в мире бесплатный архив песенных текстов, аккордов, табулатур и нот


John Petrucci - Mystic Dream Exercise - таба, видео

Регистрация Запомнить меня
Войти через:  Facebook Google Twitter Vk Yandex Mail.ru

John Petrucci - Mystic Dream Exercise - таба, видео

Печатать
Просмотров: 196
      Mystic Dream Exersize                         


                                                         John Petrucci
John Petrucci



     Q     E  E  E   E  E  E      E  E  E  E  E  E  S S S S  
E||----------------------------|----------------------------|
B||----------------------------|----------------------------|
G||--6~--------------------6~--|--L-------------------------|
D||--------7-----5h--7---------|-----------5--7-------------|
A||-----------0---------0------|-----0--0--------0--4-5-7-L-|
E||----------------------------|----------------------------|


                                                |-3-|     
  Q     E  E  E   E  E  E     E  E  E  E  E  E  S S S E   
---------------------------|-----------------------------|
---------------------------|-----------------------------|
--6~-----------------------|-----------------------------|
--------7-----5h--7-----7--|--L-----------0--3--2-3-2-0--|
-----------0---------0-----|-----0--1--4-----------------|
---------------------------|-----------------------------|


  Q     E  E  E   E  E  E      E  E  E  E     E   E   E  E   
----------------------------|-------------------------------|
----------------------------|-------------------------------|
--6~--------------------6~--|--L-----6--7/--/12--\9--\3--2--|
--------7-----5h--7---------|-----7-------------------------|
-----------0---------0------|-------------------------------|
----------------------------|-------------------------------|


                                               |-3-|     
  Q    E  E  E   E  E  E     E  E  E  E  E  E  S S S E   
--------------------------|-----------------------------|
--------------------------|-----------------------------|
--6-----------------------|-----------------------------|
-------7-----5h--7-----7--|--L-----------0--3--2-3-2-0--|
----------0---------0-----|-----0--1--4-----------------|
--------------------------|-----------------------------|


  E  E  E  E  E  E  E  E     E  E  E  E  E  E  E  E    
--------------------------|---------------------------|
--------------------------|---------------------------|
--------------------------|---------------------------|
--------------------------|---------------------------|
-----------5--4-----------|--------------5--4--8--7~--|
--3--5--6--------5--x--x--|--x--3--5--6---------------|


  E  E  E  E  E  E  E  E     E  E  E  E  E  E  E  E   
--------------------------|--------------------------|
--------------------------|--------------------------|
--------------------------|--------------------------|
--------------------------|--------------------------|
--L--------5--4--------7--|--8--5--x--3--5--2--x--x--|
-----3--6--------5--x--5--|--6--3--x--1--3--0--x--x--|


  E  E  E  E  E  E  E  E     E  E  E  E  E  E  E  E    
--------------------------|---------------------------|
--------------------------|---------------------------|
--------------------------|---------------------------|
--------------------------|---------------------------|
-----------5--4-----------|--------------5--4--8--7~--|
--3--5--6--------5--x--x--|--x--3--5--6---------------|


  E  E  E  E  E  E  E  E      E  E  E   E  E  E  E  E   
--------------------------|----------------------------|
--------------------------|----------------------------|
--------------------------|--10--9---------------------|
--------------------------|---8--7-----10--9-----------|
--L-----------5--4--------|---------0---8--7--0--8--7--|
-----3--5--6--------6--5--|----------------------6--5--|


  E  E  E  E  E  E  E  E     E  E  E  E  E  E  E  E    
--------------------------|---------------------------|
--------------------------|---------------------------|
--------------------------|---------------------------|
--------------------------|---------------------------|
-----------5--4-----------|--------------5--4--8--7~--|
--3--5--6--------5--x--x--|--x--3--5--6---------------|


  E  E  E  E  E  E  E  E     E  E  E  E  E  E  E  E   
--------------------------|--------------------------|
--------------------------|--------------------------|
--------------------------|--------------------------|
--------------------------|--------------------------|
--L--------5--4--------7--|--8--5--x--3--5--2--x-----|
-----3--6--------5--x--5--|--6--3--x--1--3--0--x--0--|


                                         |-3-|            
  E  E  E  E  E  E  E  E     E  E  E  E  S S S E  E  E    
--------------------------|------------------------------|
--------------------------|------------------------------|
-----------2--4--------4--|--5--------5--4-5-4-----------|
--------3-----------------|--------------------5---------|
-----3--------------5-----|--------7--------------5------|
--1--------------3--------|-----5--------------------1~--|


  E  E  E  E  E  E  E  E     Q    E  Q    Q    E    
--------------------------|------------------------|
--------------------------|------------------------|
-----------2--4-----5--4--|------------------------|
--------3-----------------|--2----2----------------|
-----3--------------------|--0----0-------2--------|
--L--------------3--------|----------3----0----1~--|


  E  E  E  E  E  E  E  E     E  E  E  E  E  E  E  E   
--------------------------|--------------------------|
--------------------------|--------------------------|
-----------2--4--------4--|--5--------5--7--4-----5--|
--------3-----------------|--------------------5-----|
-----3--------------5-----|--------7-----------------|
--L--------------3--------|-----5--------------------|


  E  E  E  E  E  E  E  E     Q    E  E  E  Q    E    
--------------------------|-------------------------|
--------------------------|-------------------------|
--L--------5--4-----------|----------4--x--5--------|
--------------------------|--2----2--2--x--2--------|
--------3--------------2--|--0----0--0--x--0--------|
-----1-----------0--3-----|---------------------1~--|


  E  E  E  E  E  E  E  E     E  E  E  E  E  E  E  E   
--------------------------|--------------------------|
--------------------------|--------------------------|
-----------2--4--------4--|--5--------5--7--------7--|
--------3-----------------|--------------------5-----|
-----3--------------5-----|--------7-----------------|
--L--------------3--------|-----5-----------7--------|


  E  S  S E  E  E  E  E  E     E  E  E  E  E  E  E  E   
----------------------------|--------------------------|
--8-------6--5--L-----------|-----3--5--6--------5--6--|
-----5h-7-------------------|--5-----------------------|
----------------------2--5--|-----------------7--------|
-------------------3--------|--------------5-----------|
----------------------------|--------------------------|


  E  E  E  E  E   E  E  E     E  E  E  E  E  E  E  E   
---------------------------|--------------------------|
---------------------------|--------------------------|
--------7--9---------9--5--|--------5--7--------7--3--|
---------------------------|--------------------------|
-----8-----------10--------|-----7-----------8--------|
--6-----------8------------|--5-----------6-----------|


  E  E  E  E  E  E  E  E     E  E  E  E  E  E  E  E   
--------------------------|--------------------------|
--------------------------|--------------------------|
--------3--2-----------2--|--4--5--------5--7--------|
--------------------3-----|--------------------------|
-----5-----------3--------|-----------7-----------8--|
--3-----------1-----------|--------5-----------6-----|


  E  E  E   E  E   E   E  E      E   E   E   E   H           
-----------------------------|------------------15~--------||
-----------------------------|----------15-----------------||
-----7--9--10-------------9--|--10--12------12-------------||
--8-------------------10-----|-----------------------------||
------------------10---------|-----------------------------||
---------------8-------------|-----------------------------||




Duration Legend
---------------
W - whole
H - half
Q - quarter
E - 8th
S - 16th
T - 32nd
X - 64th
. - note dotted
|-n-|  - n-tuplets


Tablature Legend
----------------
L - tied note
x - dead note
g - grace note
(n) - ghost note
> - accentuded note
NH - natural harmonic
AH - artificial harmonic
TH - tapped harmonic
SH - semi harmonic
PH - pitch harmonic
h - hammer on
p - pull off
b - bend
br - bendRelease
pb - preBend
pbr - preBendRelease
brb - bendReleaseBend
\n/ - tremolo bar dip
\n - tremolo bar dive
-/n - tremolo bar Release up
/n\ - tremolo bar inverted dip
/n - tremolo bar return
-\n - tremolo bar Release down
S - shift slide
s - legato slide
/ -  slide into from below or out of upwards
\ -  slide into from above or out of downwards
~ - vibrato
W - wide vibrato
tr - trill
TP - tremolo picking
T - tapping
S - slap
P - pop
< - fade in
^ - brush up
v - brush down
Добавлено: 31.05.2012
Другие материалы по этой песне:
  • Аккорды и текст

Страница создана 31.05.2012
http://primanota.ru/john-petrucci/mystic-dream-exercise-chords.htm
Привет, Гость.
Предлагаем пройти революционный курс по гитаре.
Подарок от PrimaNota.Ru, забирай!