PrimaNota.ru - самый крупный в мире бесплатный архив песенных текстов, аккордов, табулатур и нот


John Petrucci - Jaws Of Life - таба, видео

Регистрация Запомнить меня
Войти через:  Facebook Google Twitter Vk Yandex Mail.ru

John Petrucci - Jaws Of Life - таба, видео

Печатать
Просмотров: 176
Artist - John Petrucci
Song - Jaws Of Life
Album - Suspended Animation (2005)
Tuning - B,E,A,D,G,B,E

Guitar 1
|------------------------------------------------------|
|------------------------------------------------------|
|------------------------------------------------------|
|------------------------------------------------------|
|------------------------------------------------------|
|----------------------------------2-1-----------------|
|-12\--2-2-2-2-3-2-0-2-2-2-2-3-2-0-----3-2-2-2-2-3-2-0-|
       . . . . . . . . . . . . . . . . . . . . . . . .

|-------------------------------------------------------------------|
|-------------------------------------------------------------------|
|-------------------------------------------------------------------|
|-------------------------------------------------------------------|
|---------2-5-4-----------------------------------------------------|
|-------2---------------------------------------2-1-----------------|
|-0-2-3---------0-3-2-2-2-2-3-2-0-2-2-2-2-3-2-0-----3-2-2-2-2-3-2-0-|
  . . . . . .   . . . . . . . . . . . . . . . . . . . . . . . . . .

Guitars 1 & 2
|---------------------------------------------------------------------------|
|---------------------------------------------------------------------------|
|---------------------------------------------------------------------------|
|---------------------------------------------------------------------------|
|-5-4-2---------------------------------------------------------------------|
|-------5-4-2-------5-4-2-------------------------------2-1-----------------|
|-------------5-3-2-------3-2-2-2-2-3-2-0-2-2-2-2-3-2-0-----3-2-2-2-2-3-2-0-|

|-------------------------------------------------------------------|
|-------------------------------------------------------------------|
|-------------------------------------------------------------------|
|-------------------------------------------------------------------|
|---------2-5-4-----------------------------------------------------|
|-------2---------------------------------------2-1-----------------|
|-0-2-3---------0-3-2-2-2-2-3-2-0-2-2-2-2-3-2-0-----3-2-2-2-2-3-2-0-|

|-------------------------------------------------------------|
|-------------------------------------------------------------|
|-------------------------------------------------------------|
|-------------------------------------------------------------|
|-5-4-2-------------------------------------------------------|
|-------5-4-2-------5-4-2---4-4-4-4-5-4-2-4-4-4---5/7---5/7---|
|-------------5-3-2-------3-2-2-2-2-3-2-0-2-2-2-0-3/5-0-3/5-0-|

|-------------------------------------------------|
|-------------------------------------------------|
|-------------------------------------------------|
|-------------------------------------------------|
|-----------------------2-----1-------------------|
|-4-4-4-4-5-4-2-4-4-4-4---3-----2---4-4-----5-4-2-|
|-2-2-2-2-3-2-0-2-2-2-------4-----3-2-2-2-2-3-2-0-|
                                    . . . . . . .
Guitar 3 w/wah
|------------------------------------------------------------|
|------------------------------------------------------------|
|-/6--6-6-6-6-6-7-6/-----------------------------------------|
|--------------------\6--6-6-6-6-6-7-6/-\4--4-4-4-4-4--------|
|-----------------------------------------------------7-5-4~-|
|------------------------------------------------------------|
|------------------------------------------------------------|

Guitars 1 & 2
|---------------------------------------------------------|
|---------------------------------------------------------|
|---------------------------------------------------------|
|---------------------------------------------------------|
|---------------------------------------------------------|
|-4-4-----5-4-2-4-4-----5-4-2-4-4-----5-4-2-4-4-----5-4-2-|
|-2-2-2-2-3-2-0-2-2-2-2-3-2-0-2-2-2-2-3-2-0-2-2-2-2-3-2-0-|
  . . . . . . . . . . . . . . . . . . . . . . . . . . . .

|-------------------------------------------------------|
|-------------------------------------------------------|
|------------------6--6-6-6-6-6-7-6/--------------------|
|------------------------------------\6--6-6-6-6-6h7/11-|
|-4ah---4ah---/17\--------------------------------------|
|-------------------------------------------------------|
|-------------------------------------------------------|

|---------------------------------------------------------|
|---------------------------------------------------------|
|---------------------------------------------------------|
|---------------------------------------------------------|
|---------------------------------------------------------|
|-4-4-----5-4-2-4-4-----5-4-2-4-4-----5-4-2-4-4-----5-4-2-|
|-2-2-2-2-3-2-0-2-2-2-2-3-2-0-2-2-2-2-3-2-0-2-2-2-2-3-2-0-|
  . . . . . . . . . . . . . . . . . . . . . . . . . . . .

|----------------------------------------------|
|----------------------------------------------|
|-----------10h11-10~----10~----10\6--6~---7p6-|
|-9~---9h11------------------------------------|
|----------------------------------------------|
|----------------------------------------------|
|----------------------------------------------|

|---------------------------------------------------------|
|---------------------------------------------------------|
|---------------------------------------------------------|
|---------------------------------------------------------|
|---------------------------------------------------------|
|-2-2-----2-2-5-4-4-----5-4-2-4-4-----5-4-2---------5-4-2-|
|-0-0-0-0-0-0-3-2-2-2-2-3-2-0-2-2-2-2-3-2-0-2-2-2-2-3-2-0-|
  . . . . . . . . . . . . . . . . . . . . . . . . . . . .

|---------|
|---------|
|-4/6--6~-|
|---------|
|---------|
|---------|
|---------|

Guitars 4 & 5
|---------------------------------------|
|-5h7~---5---5h7~---7b-5~-------5~------|
|----------7----------------7-6----7-6~-|
|---------------------------------------|
|---------------------------------------|
|---------------------------------------|
|---------------------------------------|

|-------------------------------------|
|-------------------------------------|
|-------------------------------------|
|-------------------------------------|
|----------------9-----5-----7------4-|
|-4-4-4-4-5-4-2--7-----3-----5------2-|
|-2-2-2-2-3-2-0-----------------------|
  . . . . . . .

|--------------------------------------------------------------------|
|-5h7~---5---/10-8-7-7h8p7-------------------------------------14-17-|
|----------7---------------9~-------------12-14-16-------14-16-------|
|--------------------------------12-14-16----------14-16-------------|
|--------------------------------------------------------------------|
|--------------------------------------------------------------------|
|--------------------------------------------------------------------|

|---------------------|
|---------------------|
|---------------------|
|---------------------|
|-9-----5-----7-----7-|
|-7-----3-----5-----5-|
|---------------------|

Guitar 5
|-14~------12-14~---15-14-12~---------12~---------|
|-------15----------------------15-14-----15~-14~-|
|-------------------------------------------------|
|-------------------------------------------------|
|-------------------------------------------------|
|-------------------------------------------------|
|-------------------------------------------------|

Guitar 4
|-------------------------------------------------|
|-15~------14-15~---17-15-14~---------14~---------|
|-------16----------------------16-14-----16~-14~-|
|-------------------------------------------------|
|-------------------------------------------------|
|-------------------------------------------------|
|-------------------------------------------------|

Guitar 1 & 2
|---------------------------------------|
|---------------------------------------|
|---------------------------------------|
|---------------------------------------|
|-9----------5-----------7------------4-|
|-7----------3-----------5------------2-|
|---------------------------------------|

|---------------------------------------17-19-21-17-19-21-22~---21------------|
|-15~---15\-----------17-19-20-17-19-20----------------------------22-20b-19~-|
|---------------18-19---------------------------------------------------------|
|-----------/19---------------------------------------------------------------|
|-----------------------------------------------------------------------------|
|-----------------------------------------------------------------------------|
|-----------------------------------------------------------------------------|

|---------------------------------------14-15-17-14-15-17-19~---17------------|
|---------------------14-15-17-14-15-17----------------------------19-17b-15~-|
|-16~---16\-----14-16---------------------------------------------------------|
|-----------/16---------------------------------------------------------------|
|-----------------------------------------------------------------------------|
|-----------------------------------------------------------------------------|
|-----------------------------------------------------------------------------|

|---------------------------------------------------------------------------|
|---------------------------------------------------------------------------|
|---------------------------------------------------------------------------|
|---------------------------------------------------------------------------|
|-5-------------------------------------------------------2----------4------|
|-3-------------------------------------------------------0----------2----5-|
|-------------------------------------------------------------------------3-|

|-----------------------------------------------------------------------------|
|-21~---------------------------------------------------------------------21\-|
|-----------------------------------------------------------------------------|
|-----------------------------------------------------------------------------|
|-----------------------------------------------------------------------------|
|-----------------------------------------------------------------------------|
|-----------------------------------------------------------------------------|

|-----------------------------------------------------------------------------|
|-14~---------------------------------------------------------------------14\-|
|-----------------------------------------------------------------------------|
|-----------------------------------------------------------------------------|
|-----------------------------------------------------------------------------|
|-----------------------------------------------------------------------------|
|-----------------------------------------------------------------------------|

|-------------------------------------------------------------------|
|-------------------------------------------------------------------|
|-------------------------------------------------------------------|
|-------------------------------------------------------------------|
|---------------------------------------------------------2-5-4-----|
|-----------------------------2-1-----------------------2-----------|
|-2-2-2-2-3-2-0-2-2-2-2-3-2-0-----3-2-2-2-2-3-2-0-0-2-3---------0-3-|

Guitars 1 & 2
|---------------------------------------------------------------------------|
|---------------------------------------------------------------------------|
|---------------------------------------------------------------------------|
|---------------------------------------------------------------------------|
|-------------------------------------------------5-4-2---------------------|
|-----------------------------2-1-----------------------5-4-2-------5-4-2---|
|-2-2-2-2-3-2-0-2-2-2-2-3-2-0-----3-2-2-2-2-3-2-0-------------5-3-2-------3-|
  . . . . . . . . . . . . . . . . . . . . . . . .

|-----------------------------------------------------------------------------------|
|-----------------------------------------------------------------------------------|
|-----------------------------------------------------------------------------------|
|-----------------------------------------------------------------------------------|
|---------------------------------------------------------2-----1-------------------|
|-4-4-4-4-5-4-2-4-4-4---5/7---5/7---4-4-4-4-5-4-2-4-4-4-4---3-----2---4-----4-5-4-2-|
|-2-2-2-2-3-2-0-2-2-2-0-3/5-0-3/5-0-2-2-2-2-3-2-0-2-2-2-------4-----3-2-2-2-2-3-2-0-|
                                                                      . . . .

Guitar 3 w/wah
|---------------------------------------------------------|
|---------------------------------------------------------|
|-\6--6-6-6-6-6-7-6/--------------------------------------|
|--------------------\6--6-6-6-6-6-7-6/-\4--4-4-4-4-4-----|
|-----------------------------------------------------7-5-|
|---------------------------------------------------------|
|---------------------------------------------------------|

Guitars 1 & 2
|-------------------------------------------|
|-------------------------------------------|
|-------------------------------------------|
|-------------------------------------------|
|-------------------------------------------|
|-4-4-----5-4-2-4-4-----5-4-2-4-4-----5-4-2-|
|-2-2-2-2-3-2-0-2-2-2-2-3-2-0-2-2-2-2-3-2-0-|
  . . . . . . . . . . . . . . . . . . . . .

|-----------9/14p13h14p13----13-------------------------------------------------------------|
|-------------------------15----14-15-13h14p13\10h13p10\9h10p9----9-10p9h10p9----9----------|
|--------------------------------------------------------------11-------------11---10-11\6~-|
|-------3/9---------------------------------------------------------------------------------|
|-4~----------------------------------------------------------------------------------------|
|-------------------------------------------------------------------------------------------|
|-------------------------------------------------------------------------------------------|

|-------------------------------------------|
|-------------------------------------------|
|-------------------------------------------|
|-------------------------------------------|
|-------------------------------------------|
|-4-4-----5-4-2-4-4-----5-4-2-4-4-----5-4-2-|
|-2-2-2-2-3-2-0-2-2-2-2-3-2-0-2-2-2-2-3-2-0-|
  . . . . . . . . . . . . . . . . . . . . .

|------------------------------------------------------------------------------|
|---------6h7-6p0-7p0-9/-------------------------------------------------------|
|-7p5h6h7----------------\6--6-6-6-6-6-7-6/------------------------------10h11-|
|-------------------------------------------\6--6-6-6-6-6h7/11-9~---9h11-------|
|------------------------------------------------------------------------------|
|------------------------------------------------------------------------------|
|------------------------------------------------------------------------------|

|---------------------------------------------------------|
|---------------------------------------------------------|
|---------------------------------------------------------|
|---------------------------------------------------------|
|---------------------------------------------------------|
|-4-4-----5-4-2-4-4-----5-4-2-4-4-----5-4-2-2-2-----2-2-5-|
|-2-2-2-2-3-2-0-2-2-2-2-3-2-0-2-2-2-2-3-2-0-0-0-0-0-0-0-3-|
  . . . . . . . . . . . . . . . . . . . . . . . . . . . .

|-------------------------------------------|
|-------------------------------------------|
|-10ah~-----10~----10\6--6~---6h7-6-4h6-6ah-|
|-------------------------------------------|
|-------------------------------------------|
|-------------------------------------------|
|-------------------------------------------|

|---------------------------------------------------------|
|---------------------------------------------------------|
|---------------------------------------------------------|
|---------------------------------------------------------|
|---------------------------------------------------------|
|-4-4-----5-4-2-4-4-----5-4-2---------5-4-2-4-4-4-4-5-4-2-|
|-2-2-2-2-3-2-0-2-2-2-2-3-2-0-2-2-2-2-3-2-0-2-2-2-2-3-2-0-|
  . . . . . . . . . . . . . . . . . . . . . . . . . . . .

Guitar 5
|-14~------12-14~--14h15-14~--12h14p12----12~-------12~-14~-12-12h14p12-|
|-------15-----------------------------15-----14-15---------------------|
|-----------------------------------------------------------------------|
|-----------------------------------------------------------------------|
|-----------------------------------------------------------------------|
|-----------------------------------------------------------------------|
|-----------------------------------------------------------------------|

Guitar 4
|-----------------------------------------------------------------------|
|-15~------14-15~--15/17-15~--14h15p14----14~-------14~-15~-14-14h15p14-|
|-------16-----------------------------16-----14-16---------------------|
|-----------------------------------------------------------------------|
|-----------------------------------------------------------------------|
|-----------------------------------------------------------------------|
|-----------------------------------------------------------------------|

Guitars 1 & 2
|-----------------------------------------------------|
|-----------------------------------------------------|
|-----------------------------------------------------|
|-----------------------------------------------------|
|-9----------5----------------7---------------------4-|
|-7----------3----------------5---------------------2-|
|-----------------------------------------------------|

|---------------------------------------17-19-21-17-19-21-22~--21----22b--22b-|
|-15~---15\-----------17-19-20-17-19-20---------------------------22----------|
|---------------18-19---------------------------------------------------------|
|-----------/19---------------------------------------------------------------|
|-----------------------------------------------------------------------------|
|-----------------------------------------------------------------------------|
|-----------------------------------------------------------------------------|

|---------------------------------------14-15-17-14-15-17-19~--17----19b--19b-|
|---------------------14-15-17-14-15-17---------------------------19----------|
|-16~---16\-----14-16---------------------------------------------------------|
|-----------/16---------------------------------------------------------------|
|-----------------------------------------------------------------------------|
|-----------------------------------------------------------------------------|
|-----------------------------------------------------------------------------|

|---------------------------------------------------------------------------|
|---------------------------------------------------------------------------|
|---------------------------------------------------------------------------|
|---------------------------------------------------------------------------|
|-5-------------------------------------------------------2-----------4---7-|
|-3-------------------------------------------------------0-----------2---5-|
|---------------------------------------------------------------------------|

|-19~-----19\-|
|-------------|
|-------------|
|-------------|
|-------------|
|-------------|
|-------------|

|-22~-----22\-|
|-------------|
|-------------|
|-------------|
|-------------|
|-------------|
|-------------|

|-------------------------------------------------------------|
|-------------------------------------------------------------|
|-------------------------------------------------------------|
|-------------------------------------------------------------|
|---------------5\4-------------------------------------5\4---|
|---------7p5-------5-7-------7p5---5\4-----------7p5-------5-|
|-0-0-0-0-----7---------0-0-0-----7-----5-7-0-0-0-----7-------|
  . . . .               . . .               . . .

Guitars 1 & 2
|-----------------------------------------------------------------------------------------------|
|-----------------------------------------------------------------------------------------------|
|-----------------------------------------------------------------------------------------------|
|-----------------------------------------------------------------------------------------------|
|--------------------------------5\4-------------------------------------5\4--------------------|
|-7-------5----------------7p5-------5-7-------7p5---5\4-----------7p5-------5-7-------5--------|
|---5-5-0---3-3-3b-0-0-0-0-----7---------0-0-0-----7-----5-7-0-0-0-----7---------5-5-0---3-3-3b-|
                   . . . .               . . .               . . .

                                                                                         
           Guitar Solo, Guitar 3 (wah off)
|--------------------------------------------------------------------|
|--------------------------------------------------------------------|
|-----------------------------------------------------------------7b-|
|-7/9~---9\-------7-9-7-9b--9p7---7h9-7h9p7~--7\2-----------7-8-9----|
|-------------4/9---------------9-------------------x-7-8-9----------|
|--------------------------------------------------------------------|
|--------------------------------------------------------------------|

|--------7----------------------------------------------------7----7-9p7h9p7----7-------------|
|--------7---------------------------------------------9b-9~----10-----------10---10-9-7----7-|
|-----9b---10/9p7---9---7h8-9------------------------------------------------------------10---|
|-9-7-------------9---9-----9---7-------------------------------------------------------------|
|-----------------------------9---9-8-7-------------------------------------------------------|
|---------------------------------------10-7-10b~--10\----------------------------------------|
|---------------------------------------------------------------------------------------------|

|-----------------7--------------------------------------------------14h16h17-|
|----------------------------10b~--10\-15b--15b--12----12-15-12--/17----------|
|-10-9-8-7-8-9-10---10-9-8-7------------------------14------------------------|
|-----------------------------------------------------------------------------|
|-----------------------------------------------------------------------------|
|-----------------------------------------------------------------------------|
|-----------------------------------------------------------------------------|

|-19p17p16p14-------------------------------------------------------------------------------------------------------------|
|-------------17h18p15\14h15p14-------------------------------------------------------------------------------------------|
|-------------------------------17\16p14----------------------------------------------------------------------------------|
|----------------------------------------14h16p14\12h14p12\11h12p11h12p11-------------------------------------------------|
|-------------------------------------------------------------------------14p12h14p12p11h12p11\9h11p9---------------------|
|-----------------------------------------------------------------------------------------------------12p10\9h10p9\7h9p7~-|
|-------------------------------------------------------------------------------------------------------------------------|

|----12-16-12-17-12-16-12----16----12-------------------------------------------------------------------------|
|-15----------------------15----15----15-12----12-------------------------------------------------------------|
|-------------------------------------------15----15-14-13-12-------14-13-------------------------------------|
|-------------------------------------------------------------14-12-------14-12-------14-12-------------------|
|-------------------------------------------------------------------------------14-12-------14-13-12-11----11-|
|-------------------------------------------------------------------------------------------------------12----|
|-------------------------------------------------------------------------------------------------------------|

|-----------------------------------------------------------------------------------------------------------------------------------------|
|-----------------------------------------------------------------------------------------------------------------------------------------|
|----------13-----------------------------------------------------------------------------------------------------------------------------|
|--------------------------------------------------------------------------------------------12----------------14----------------12-14-13-|
|-12-13-14----14-13-12-11--------------10----------------12----------------10-12-11-12-13-14----14-13-12-13-14----14-13-12-13-14----------|
|-------------------------12~-10-11-12----12-11-10-11-12----12-11-10-11-12----------------------------------------------------------------|
|-----------------------------------------------------------------------------------------------------------------------------------------|

|----------------------------------------------------------------------------------12-------------------------|
|----------------------------------------------------------------12----------------12----------------12-14-15-|
|----------12----------------14----------------12-14-13-12-13-14----14-13-12-13-14----14-13-12-13-14----------|
|-12-13-14----14-13-12-13-14----14-13-12-13-14----------------------------------------------------------------|
|-------------------------------------------------------------------------------------------------------------|
|-------------------------------------------------------------------------------------------------------------|
|-------------------------------------------------------------------------------------------------------------|

|----------------------------------------------------------------------------------------------------------------|
|-17p15-12----12-15-17-15-12----12-15-17-15-12----12-15-16-15-12----12-15-16-15-12----12-15-16-15-12----12-15-16-|
|----------14----------------14----------------14----------------14----------------14----------------14----------|
|----------------------------------------------------------------------------------------------------------------|
|----------------------------------------------------------------------------------------------------------------|
|----------------------------------------------------------------------------------------------------------------|
|----------------------------------------------------------------------------------------------------------------|

|-----------------------------------------------------------------------------------------------------------------------------------------|
|-14-12----12-14-15-14-12----12-14-15-14-12----14-15-14-13-15-17-15-14-16-17-16-15-17-18-17-16-17-19-17-16-18-20-18-16-19-20-19-17-18-18h-|
|-------14----------------14----------------14--------------------------------------------------------------------------------------------|
|-----------------------------------------------------------------------------------------------------------------------------------------|
|-----------------------------------------------------------------------------------------------------------------------------------------|
|-----------------------------------------------------------------------------------------------------------------------------------------|
|-----------------------------------------------------------------------------------------------------------------------------------------|

|--------------------------------------------------------------------------------------------------------------------------|
|-19-21-22-21-19----19-21-22-21-19----19-21-22-21-19----19-21-24-21-19----19-21-24-21-19----19-21-24-21-19----19-21-24-21\-|
|----------------22----------------22----------------22----------------22----------------22----------------22--------------|
|--------------------------------------------------------------------------------------------------------------------------|
|--------------------------------------------------------------------------------------------------------------------------|
|--------------------------------------------------------------------------------------------------------------------------|
|--------------------------------------------------------------------------------------------------------------------------|

|-------------------------------------------------------------------------------------------------------|
|-19-18-15----15-18-19-18-15----15-18-19-18-15----15-18-19-18-15----------------------------------------|
|----------16----------------16----------------16----------------16-16-14----------14-16----------------|
|-------------------------------------------------------------------------16p14h16-------14-12----------|
|----------------------------------------------------------------------------------------------14~--14\-|
|-------------------------------------------------------------------------------------------------------|
|-------------------------------------------------------------------------------------------------------|

|------------------------------------------------------------------5-9-5---|
|-----6-7-6-------6-9-6-------6-10-6-------6-7-6-------6-9-6---------------|
|-6-7-------7-6-7-------7-6-7--------7-6-7-------7-6-7-------7-6-7-------7-|
|--------------------------------------------------------------------------|
|--------------------------------------------------------------------------|
|--------------------------------------------------------------------------|
|--------------------------------------------------------------------------|

|------------------------------------------------------------------------------------|
|-----6-7-6-------6-9-6-------6-10-6---7p6---6---------------------------------------|
|-6-7-------7-6-7-------7-6-7--------7-----9---9-8-7p6----6--------------------------|
|------------------------------------------------------10---10-7-9~---7h9-7~---7h9p7-|
|------------------------------------------------------------------------------------|
|------------------------------------------------------------------------------------|
|------------------------------------------------------------------------------------|

|---------------------|
|---------------------|
|---------------------|
|-6~------------------|
|-----7-5h7/9-7~---7\-|
|---------------------|
|---------------------|

w/wah
|-12t10p7---------12t10p7---------12t10p7---------12t10p7---------|
|---------12t10p7---------12t10p7---------12t10p7---------12t10p7-|
|-----------------------------------------------------------------|
|-----------------------------------------------------------------|
|-----------------------------------------------------------------|
|-----------------------------------------------------------------|
|-----------------------------------------------------------------|

|-12t10p7---------12t10p7---------12t10p7---------12t10p7---------12t10p7-14t10p7-12t10p7---------12t10p7-14t10p7-12t10p7---------12t-|
|---------12t10p7---------12t10p7---------12t10p7---------12t10p7-------------------------12t10p7-------------------------12t10p7-----|
|-------------------------------------------------------------------------------------------------------------------------------------|
|-------------------------------------------------------------------------------------------------------------------------------------|
|-------------------------------------------------------------------------------------------------------------------------------------|
|-------------------------------------------------------------------------------------------------------------------------------------|
|-------------------------------------------------------------------------------------------------------------------------------------|

|-10p7-13t10p7-12t10p7---------12t10p7-13t10p7-12t10p7---------12t10p7----------------------------------------------------------|
|----------------------12t10p7-------------------------12t10p7---------12t10p7--------12t10p7-----------------------------------|
|------------------------------------------------------------------------------11t9p7---------11t9p7--------11t9p7--------------|
|----------------------------------------------------------------------------------------------------11t9p7--------11t9p7-------|
|-------------------------------------------------------------------------------------------------------------------------12t9p-|
|-------------------------------------------------------------------------------------------------------------------------------|
|-------------------------------------------------------------------------------------------------------------------------------|

|------------------------------------------------------------------------------------------------------------|
|------------------------------------------------------------------------------------------------------------|
|--------------------------------------11t9p7--------11t9p7--------11t9p7---------------11t9p7--------11t9p7-|
|---11t9p7----------------------11t9p7--------11t9p7--------11t9p7--------11t9p7-11t9p7--------11t9p7--------|
|-7--------12t9p7--------12t9p7------------------------------------------------------------------------------|
|-----------------12t9p7-------------------------------------------------------------------------------------|
|------------------------------------------------------------------------------------------------------------|

|---------12t10p7-------------------------------------------------------------------------------------------|
|-12t10p7---------12t10p7--------12t10p7--------------------------------------10----10----10----------------|
|-------------------------11t9p7---------11t9p7------------------------x-2/11----11----11----11\9p7---9---7-|
|-----------------------------------------------11t9p7-----------------x----------------------------9---9---|
|------------------------------------------------------11t9p7-----------------------------------------------|
|-------------------------------------------------------------h9-7sh~---------------------------------------|
|-----------------------------------------------------------------------------------------------------------|

|---------------------------------------------------|
|-------------------------------10-12b--10----12----|
|-9b~-----9b-9b-9b-9b-7~---7/11------------11----11-|
|---------------------------------------------------|
|---------------------------------------------------|
|---------------------------------------------------|
|---------------------------------------------------|

|----------------------12-14-14p12----12----------------12-17b---17b~-------13/14-15-15h16-17-|
|-10-12/15p12-15-12-15-------------15----15-14-12-14-15----------------(15)\------------------|
|---------------------------------------------------------------------------------------------|
|---------------------------------------------------------------------------------------------|
|---------------------------------------------------------------------------------------------|
|---------------------------------------------------------------------------------------------|
|---------------------------------------------------------------------------------------------|

|-13/14-----------------------------------------------------------------------------|
|-------15--------------------------------------------------------------------------|
|----------16p14----14\12----12\11----11-14-12~--9-12-11-0-7-11-9-0-6-9-7-0-4-7-6-0-|
|----------------16-------14-------14-----------------------------------------------|
|-----------------------------------------------------------------------------------|
|-----------------------------------------------------------------------------------|
|-----------------------------------------------------------------------------------|

|---------------------------7-9-7-9-10-12-10-14-12-14-15-17-14-|
|--------------------5/8-10------------------------------------|
|-2-6-4~---4/6h7-6-7-------------------------------------------|
|--------------------------------------------------------------|
|--------------------------------------------------------------|
|--------------------------------------------------------------|
|--------------------------------------------------------------|

|-15-14-12-17-15-14-19-17-15-21-19-17-22-21-19-24-22-21-22~---22~-24-21~---21~-22-|
|---------------------------------------------------------------------------------|
|---------------------------------------------------------------------------------|
|---------------------------------------------------------------------------------|
|---------------------------------------------------------------------------------|
|---------------------------------------------------------------------------------|
|---------------------------------------------------------------------------------|

|-19~--14h19h22t19p14----------14h19h22t19p14----------14h19h22t19p14----------14h19h22t19p14---------------------------|
|---------------------15p14h15----------------15p14h15----------------15p14h15----------------15p14---------------------|
|---------------------------------------------------------------------------------------------------16p14-16~--\--14-16-|
|---------------------------------------------------------------------------------------------------------------7/------|
|-----------------------------------------------------------------------------------------------------------------------|
|-----------------------------------------------------------------------------------------------------------------------|
|-----------------------------------------------------------------------------------------------------------------------|

|--------17-------------------------------------------------------------------|
|-15-17b----17~----17bp15-----------------------------------------------------|
|-------------------------16-14h16p14-----------------------------6---6/7/11\-|
|-------------------------------------14b--14p12h14p12------------------------|
|------------------------------------------------------14p12-14~--4---4/5/9\--|
|-----------------------------------------------------------------------------|
|-----------------------------------------------------------------------------|

|------------------------------------------------|
|------------------------------------------------|
|-\10---10/11/16\14\13----14/19\18-----------18\-|
|------------------------------------------------|
|-\8----8/-9/-14\12\11----12/17\16-----------16\-|
|------------------------------------------------|
|------------------------------------------------|

Guitars 1 & 2
|-----------------------------------------------------------|
|-----------------------------------------------------------|
|-----------------------------------------------------------|
|-------------------------------------------------------2-5-|
|-------------------------2-5-4-------------2p1-------2-----|
|-2-2-2-2-3---2-2-2---2h3-------3-2-2-2-2-3-------2-3-------|
|-----------5-------5---------------------------5-----------|

|-----------------------------------------------------------|
|-----------------------------------------------------------|
|-----------------------------------------------------------|
|-------------------------------------------------------4-7-|
|-------------------------4-7-6-------------4p3-------4-----|
|-4-4-4-4-5---4-4-4---4h5-------5-4-4-4-4-5-------4-5-------|
|-----------7-------7---------------------------7-----------|

Guitar 3
|-------------------------------------------------------------------------------------------------------------|
|-------------------------------------------------------------------------------------------------------------|
|-------------------------------------------------------------------------13-14-13----------16-14-13-17-16-14-|
|-------------------------------------12-13-12----------15-13-12-16-15-13----------16-15-13-------------------|
|-11-12-11----------14-12-11-15-14-12----------15-14-12-------------------------------------------------------|
|----------14-13-11-------------------------------------------------------------------------------------------|
|-------------------------------------------------------------------------------------------------------------|

Guitar 2
|------------------------------------------------------------------------------------------|
|------------------------------------------------------------------------------------------|
|------------------------------------------------------------------------------------------|
|----------------------------------------------------------9-10-9---------12-10-9-13-12-10-|
|-----------------------------8-9-8---------11-9-8-12-11-9--------12-11-9------------------|
|-7-8-7--------10-8-7-11-10-8-------11-10-8------------------------------------------------|
|-------10-9-7-----------------------------------------------------------------------------|

Guitar 1
|--------------------------------------------------------------------------|
|--------------------------------------------------------------------------|
|--------------------------------------------------------------------------|
|-------------------------------------------------6-7-6-------9-7-6-10-9-7-|
|-------------------------5-6-5-------8-6-5-9-8-6-------9-8-6--------------|
|-4-5-4-------7-5-4-8-7-5-------8-7-5--------------------------------------|
|-------7-6-4--------------------------------------------------------------|

|-------------------------------------|
|-15-16-15----------18-16-15-19-18-16-|
|----------17-16-14-------------------|
|-------------------------------------|
|-------------------------------------|
|-------------------------------------|
|-------------------------------------|

Guitar 5
|-------------------------------------------------------|
|-------------------------------------------------------|
|-19-17-------19-17-------19-17-------19-20-19-17-------|
|-------19-17-------19-17-------19-17-------------19-17-|
|-------------------------------------------------------|
|-------------------------------------------------------|
|-------------------------------------------------------|

|-------------------------------------|
|-------------------------------------|
|-10-11-10----------13-11-10-14-13-11-|
|----------13-12-10-------------------|
|-------------------------------------|
|-------------------------------------|
|-------------------------------------|

Guitar 4
|-------------------------------------------------------|
|-------------------------------------------------------|
|-14-12-------14-12-------14-12-------14-15-14-12-------|
|-------13-12-------13-12-------13-12-------------13-12-|
|-------------------------------------------------------|
|-------------------------------------------------------|
|-------------------------------------------------------|

|-----------------------------|
|-----------------------------|
|-7-8-7--------10-8-7-11-10-9-|
|-------10-9-7----------------|
|-----------------------------|
|-----------------------------|
|-----------------------------|

Guitar 1 & 2
|----------------|
|----------------|
|----------------|
|----------------|
|-5---5--------5-|
|-5---5--------5-|
|-3---3--------3-|

|-------------------------------------------------------------------------------------------------------------|
|----------------------------------------------------------------------------------------------------20-22-23-|
|-19-17-------19-17-------19-17-------19-20-19-17-------19-17-------19-17-------19-20-19-17-19-20-22----------|
|-------19-17-------19-17-------19-17-------------19-17-------19-17-------19-17-------------------------------|
|-------------------------------------------------------------------------------------------------------------|
|-------------------------------------------------------------------------------------------------------------|
|-------------------------------------------------------------------------------------------------------------|

|-------------------------------------------------------------------------------------------------------------|
|----------------------------------------------------------------------------------------------------15-16-18-|
|-14-12-------14-12-------14-12-------14-15-14-12-------14-12-------14-12-------14-15-14-12-14-15-17----------|
|-------13-12-------13-12-------13-12-------------13-12-------13-12-------13-12-------------------------------|
|-------------------------------------------------------------------------------------------------------------|
|-------------------------------------------------------------------------------------------------------------|
|-------------------------------------------------------------------------------------------------------------|

|------------------------------------------------------------------------|
|------------------------------------------------------------------------|
|------------------------------------------------------------------------|
|------------------------------------------------------------------------|
|-5----5--------5---------------------------------------5----5---------5-|
|-5----5--------5---------------------------------------5----5---------5-|
|-3----3--------3---------------------------------------3----3---------3-|

|-------------------------------------------------------------------------------------------------20-22-22-23-|
|-22-20-------22-20-------22-20-------22-23-22-20-------22-20-------22-20-------22-23-22-20-22-23-------------|
|-------22-20-------22-20-------22-20-------------22-20-------22-20-------22-20-------------------------------|
|-------------------------------------------------------------------------------------------------------------|
|-------------------------------------------------------------------------------------------------------------|
|-------------------------------------------------------------------------------------------------------------|
|-------------------------------------------------------------------------------------------------------------|

|----------------------------------------------------------------------------------------------------17-18-20-|
|-16-15-------16-15-------16-15-------16-18-16-15-------16-15-------16-15-------16-18-16-15-16-18-20----------|
|-------17-15-------17-15-------17-15-------------17-15-------17-15-------17-15-------------------------------|
|-------------------------------------------------------------------------------------------------------------|
|-------------------------------------------------------------------------------------------------------------|
|-------------------------------------------------------------------------------------------------------------|
|-------------------------------------------------------------------------------------------------------------|

|-----------------------------------------------------------------------------------|
|-----------------------------------------------------------------------------------|
|-----------------------------------------------------------------------------------|
|-----------------------------------------------------------------------------------|
|-3--------------------------6--------------------------3-------------------------8-|
|-3--------------------------6--------------------------3-------------------------8-|
|-1--------------------------4--------------------------1-------------------------6-|

|-22-23-22-20-------22-23-22-20-------22-23-22-20-------22-23-22-20-------22-23-22-20-------22-23-22-20-------|
|-------------22-20-------------22-20-------------22-20-------------22-20-------------22-20-------------22-20-|
|-------------------------------------------------------------------------------------------------------------|
|-------------------------------------------------------------------------------------------------------------|
|-------------------------------------------------------------------------------------------------------------|
|-------------------------------------------------------------------------------------------------------------|
|-------------------------------------------------------------------------------------------------------------|

|-17-18-17-15-------17-18-17-15-------17-18-17-15-------17-18-17-15-------17-18-17-15-------17-18-17-15-------|
|-------------16-15-------------16-15-------------16-15-------------16-15-------------16-15-------------16-15-|
|-------------------------------------------------------------------------------------------------------------|
|-------------------------------------------------------------------------------------------------------------|
|-------------------------------------------------------------------------------------------------------------|
|-------------------------------------------------------------------------------------------------------------|
|-------------------------------------------------------------------------------------------------------------|

|-----------------------------------------------------------------------|
|-----------------------------------------------------------------------|
|-----------------------------------------------------------------------|
|-----------------------------------------------------------------------|
|-5---5---------5--------------------------------------5-----5--------5-|
|-5---5---------5--------------------------------------5-----5--------5-|
|-3---3---------3--------------------------------------3-----3--------3-|

|-22-23-22-20-------22-23-22-20-------22-23-22-20-------------------------------------------22-18-20-22-20-18-|
|-------------22-20-------------22-20-------------22-20-23-20-22-23-22-20-22-18-20-22-20-18-------------------|
|-------------------------------------------------------------------------------------------------------------|
|-------------------------------------------------------------------------------------------------------------|
|-------------------------------------------------------------------------------------------------------------|
|-------------------------------------------------------------------------------------------------------------|
|-------------------------------------------------------------------------------------------------------------|

|-17-18-17-15-------17-18-17-15-------17-18-17-15-------22-18-20-22-20-18-20-17-18-20-18-17-18-15-17-18-17-15-|
|-------------16-15-------------16-15-------------16-15-------------------------------------------------------|
|-------------------------------------------------------------------------------------------------------------|
|-------------------------------------------------------------------------------------------------------------|
|-------------------------------------------------------------------------------------------------------------|
|-------------------------------------------------------------------------------------------------------------|
|-------------------------------------------------------------------------------------------------------------|

|-----------------------------------------------------------------------------------|
|-----------------------------------------------------------------------------------|
|-----------------------------------------------------------------------------------|
|-----------------------------------------------------------------------------------|
|-5----5--------5---------------------------------------3-------------------------6-|
|-5----5--------5---------------------------------------3-------------------------6-|
|-3----3--------3---------------------------------------1-------------------------4-|

|-------------------------------------22-17-18-20-18-17-|
|-23-20-22-23-22-20-22-18-20-22-20-18-------------------|
|-------------------------------------------------------|
|-------------------------------------------------------|
|-------------------------------------------------------|
|-------------------------------------------------------|
|-------------------------------------------------------|

Guitars 4 & 5
|-------------------|
|-------------------|
|-------------------|
|-------------------|
|-------------------|
|-------------------|
|-0---------------3-|

|-22-18-20-22-20-18-20-17-18-20-18-17-23-20-22-23-22-20-|
|-------------------------------------------------------|
|-------------------------------------------------------|
|-------------------------------------------------------|
|-------------------------------------------------------|
|-------------------------------------------------------|
|-------------------------------------------------------|

|------------------------------------------------------------------------------------------------------|
|------------------------------------------------------------------------------------------------------|
|------------------------------------------------------------------------------------------------------|
|------------------------------------------------------------------------------------------------------|
|-3-----------------------------8-------------------------5-5-5-----5-5-5-----5-5-5--5--5--5-5-5--5--5-|
|-3-----------------------------8-------------------------5-5-5-----5-5-5-----5-5-5--5--5--5-5-5--5--5-|
|-1-----------------------------6-------------------------3-3-3-----3-3-3-----3-3-3--3--3--3-3-3--3--3-|

Guitar 3
|---------------------------------------------------------|
|-5h7~---5------12-------------------10--12-14-14b~----12-|
|----------7-11-----11-12-9~---7-6-9----------------------|
|---------------------------------------------------------|
|---------------------------------------------------------|
|---------------------------------------------------------|
|---------------------------------------------------------|

Guitars 1 & 2
|------------------------------------------------|
|------------------------------------------------|
|------------------------------------------------|
|------------------------------------------------|
|-9---------5------------7--------4------------9-|
|-7---------3------------5--------2------------7-|
|------------------------------------------------|

|----------------------------------------14-15-17-/19~---17-15-14-15-----------|
|-14b----14b--14---14\----------14-15-17-----------------------------17--15-14-|
|-------------------------14-16------------------------------------------------|
|---------------------/16------------------------------------------------------|
|------------------------------------------------------------------------------|
|------------------------------------------------------------------------------|
|------------------------------------------------------------------------------|

|----------------------------------------------------------------|
|----------------------------------------------------------------|
|----------------------------------------------------------------|
|----------------------------------------------------------------|
|-5----------7---------------7---------------------9-----------5-|
|-3----------5---------------5---------------------7-----------3-|
|----------------------------------------------------------------|

|----17p14------------------------------------------------------------------------------------------------------|
|-14-------15-14-------17p14------------------------------------------------------------------------------------|
|----------------16-14-------16-14-------18p14-------------------------------------/16-14-----------------14-16-|
|----------------------------------16-14-------16-14----14-16----14-----------------------14h16-14--14/16-------|
|----------------------------------------------------17-------17----16-17-14-16-17------------------------------|
|---------------------------------------------------------------------------------------------------------------|
|---------------------------------------------------------------------------------------------------------------|

|------------------------------------------------------------------------------------------------|
|------------------------------------------------------------------------------------------------|
|------------------------------------------------------------------------------------------------|
|------------------------------------------------------------------------------------------------|
|-7-----------------------------------4-----------------------------------9--------------------5-|
|-5-----------------------------------2-----------------------------------7--------------------3-|
|------------------------------------------------------------------------------------------------|

|-------------------------------------------------------14-17p14-------19p15-------21-17-|
|-14h15-14--------14h15-14--14-15-----------------14-15----------15-14-------17-15-------|
|-----------16-14-----------------16~-------14-16----------------------------------------|
|---------------------------------------/16----------------------------------------------|
|----------------------------------------------------------------------------------------|
|----------------------------------------------------------------------------------------|
|----------------------------------------------------------------------------------------|

|------------------------------------------------------|
|------------------------------------------------------|
|------------------------------------------------------|
|------------------------------------------------------|
|---7----------------7------------9------------------5-|
|---5----------------5------------7------------------3-|
|------------------------------------------------------|

|-------22-19-21-19----------19-------17-------17---------------------------------------------------------------|
|-19-17-------------20-19\17----17\15----15\14----14-15----14----------------/17~-15h17p15\14h15p14-------------|
|-------------------------------------------------------16----16-15-14-15-16\-----------------------16p14-------|
|---------------------------------------------------------------------------------------------------------17-16-|
|---------------------------------------------------------------------------------------------------------------|
|---------------------------------------------------------------------------------------------------------------|
|---------------------------------------------------------------------------------------------------------------|

|----------------------------------------------------------------------------|
|----------------------------------------------------------------------------|
|----------------------------------------------------------------------------|
|----------------------------------------------------------------------------|
|-7--------------------------------------4---------------------------------9-|
|-5--------------------------------------2---------------------------------7-|
|----------------------------------------------------------------------------|

|---------------------------------------------------------------------------------------------|
|---/22~-20h22p20\19h20p19----------------------22\12p10h12p10\8h10p8\7h8p7-------------------|
|--------------------------21p19\18h19p18-----------------------------------9-7\6h7-7h9p7p6/7-|
|-----------------------------------------21-19-----------------------------------------------|
|-14------------------------------------------------------------------------------------------|
|---------------------------------------------------------------------------------------------|
|---------------------------------------------------------------------------------------------|

|-----------------------------------------------|
|-----------------------------------------------|
|-----------------------------------------------|
|-----------------------------------------------|
|-5-------------------------------------------7-|
|-3-------------------------------------------5-|
|-----------------------------------------------|

|------------------------------------------------------------------------------------|
|------------------------------------------------------------------------------------|
|-7h9p7/9h11p9\7h9p7/9h11p9/11-12p11\9h11p9/11h12p11/12h14p12-/19~------19-21-19-21b-|
|-------------------------------------------------------------------/21--------------|
|------------------------------------------------------------------------------------|
|------------------------------------------------------------------------------------|
|------------------------------------------------------------------------------------|

|----------------------------------------------------------------|
|----------------------------------------------------------------|
|----------------------------------------------------------------|
|----------------------------------------------------------------|
|-7------------------------------------------------------------9-|
|-5------------------------------------------------------------7-|
|----------------------------------------------------------------|

|-----------------------------------------------------------------------------19-------22-19-----19-----19-|
|-19-22-----19---------------------------------------------------19-22-19-22b----22-19-------22b----22b----|
|-------21b----19-21---------------------------------19-21-19-21-------------------------------------------|
|--------------------21~-----------------19-21-19/21-------------------------------------------------------|
|----------------------------17-19-17/21-------------------------------------------------------------------|
|------------------------/19-------------------------------------------------------------------------------|
|----------------------------------------------------------------------------------------------------------|

|---------------------------------------------------------------------|
|---------------------------------------------------------------------|
|---------------------------------------------------------------------|
|---------------------------------------------------------------------|
|-5-----------------------------7-----------------------------------4-|
|-3-----------------------------5-----------------------------------2-|
|---------------------------------------------------------------------|

|-------------17--------------------------------19-21p18-------------14-17p14----------|
|-22b~---17b-----17--15~---17~-----------17--------------19-------15----------15----15-|
|----------------------------------16-------/16-------------18\14----------------14----|
|-------------------------------------14-----------------------------------------------|
|------------------------------/14-----------------------------------------------------|
|--------------------------------------------------------------------------------------|
|--------------------------------------------------------------------------------------|

|---------------------------------------------------------------------|
|---------------------------------------------------------------------|
|---------------------------------------------------------------------|
|---------------------------------------------------------------------|
|-5-------------------------2----------------------4------------------|
|-3-------------------------0----------------------2----------------5-|
|-------------------------------------------------------------------3-|

Guitar 3
|-------------------
Добавлено: 05.07.2012
Другие материалы по этой песне:

Страница создана 26.03.2012
http://primanota.ru/john-petrucci/jaws-of-life-chords.htm
Привет, Гость.
Предлагаем пройти революционный курс по гитаре.
Подарок от PrimaNota.Ru, забирай!