PrimaNota.ru - самый крупный в мире бесплатный архив песенных текстов, аккордов, табулатур и нот


John Petrucci - Damage Control - таба, бас-таба, видео

Регистрация Запомнить меня
Войти через:  Facebook Google Twitter Vk Yandex Mail.ru

John Petrucci - Damage Control - таба, бас-таба, видео

Печатать
Просмотров: 497
Авторы музыки: John Petrucci

 W                     H         S S S S S S S S  
--------------------||------------5---------------|
--------------------||--8~----------8-5-----------|
-------------------*||------------------8-7-5-----|
-------------------*||------------------------7-5-|
--------------------||----------------------------|
--------------------||----------------------------|


  S  S S S S S S S S S S S  S S S S  
------------------------------------|
------------------------------------|
--5h-6-----------5------------------|
-------7---5-6-7---7-5--------------|
---------7-------------7-5\-5-3-----|
--------------------------------5-3-|


                               |---3---|   
  E  S  S S  S S  S S  S S  S  E   E   E   
------------------------------------------|
------------------------------------------|
------------------------------------------|
------------------------------/7--10--11--|
--0--3p-0-5p-0-6p-0-7p-0-7p-5-------------|
------------------------------------------|


  |--3--|  |---3--|              
  E  E  E  E  E   E   H          
--------------------------------|
-----------8--9--10--10~--------|
--7--8--9-----------------------|
--------------------------------|
--------------------------------|
--------------------------------|


   |---3--|                                    
   S   S  S  S  S S  S  S S S S  S S  S S S S  
--11p-10p-8-10----8h-9-------------8----------|
---------------10------10---8-9-10---10-9-8---|
--------------------------9-----------------9-|
----------------------------------------------|
----------------------------------------------|
----------------------------------------------|


  S  S  S S S  S S  S S   S S  S  S  S S  S  
--------------------------------------------|
----------8---------------------------------|
--7h-8h-9---9p-8-7----------7h-8p-7---------|
-------------------10-7h-10---------10-7----|
-----------------------------------------10-|
--------------------------------------------|


  |--3--| |--3--| |--3--| |--3-| |--3--| |--3-| |--3-| |--3--|  
  S  S  S S  S  S S  S  S S S  S S  S  S S S  S S S  S S  S  S  
---------------------------------------------------------------|
-------------------------------------------------------8-10-13-|
--------------------------7-9-12---------7-9-12-7-9-12---------|
----------7-10-12-7-10-12--------7-10-12-----------------------|
--7-10-12------------------------------------------------------|
---------------------------------------------------------------|


  |--3--| |--3--|  |--3--| |--3--|  |--3--| |--3--| |--3--|  |--3-|  
  S  S  S S  S  S  S  S  S S  S  S  S  S  S S  S  S S  S  S  S  S S  
----------8-10-11-12-11-10-8-10-11-12-11-10-8-----------------------|
--8-10-13-------------------------------------13-10-8-10-13-13-10-8-|
--------------------------------------------------------------------|
--------------------------------------------------------------------|
--------------------------------------------------------------------|
--------------------------------------------------------------------|


   H             H         
--------------------------|
-------------17g17--------|
--11~---------------------|
--------------------------|
--------------------------|
--------------------------|


   S  S  S  S  S  S  S  S  S   S  S  S  S  S  S  S  
--14-18-14----14-17-14----16p-14-------14----------|
-----------17----------17--------17-16----17-16-15-|
---------------------------------------------------|
---------------------------------------------------|
---------------------------------------------------|
---------------------------------------------------|


   S  S  S  S  S  S   E    S  S  S  S  S  S  S  S  
--------------------------17----14----------------|
--14-------------17b--L~-----17----14-17----14----|
-----17-16-15-14-------------------------16----14-|
--------------------------------------------------|
--------------------------------------------------|
--------------------------------------------------|


   S  S  E    S  S  S  S  S  S  S  S  Q      
--------------------------------------------|
--------------------------------------------|
--16----14~---------------------------------|
-----16------16----14-----------------------|
----------------16----14-16-12-14-----------|
----------------------------------12-14~----|


                               W            
      Q       S    S     S  S  Q.      E    
--19g19pb-----Lpb--Lpbr--L-17--------------|
------------------------------19-------L\--|
-------------------------------------------|
-------------------------------------------|
-------------------------------------------|
-------------------------------------------|


                               W            
      Q       S    S     S  S  Q.      E    
--21g21pb-----Lpb--Lpbr--L-17--------------|
------------------------------19-------L\--|
-------------------------------------------|
-------------------------------------------|
-------------------------------------------|
-------------------------------------------|


                            W            
      E.   S     E   S   S  Q.      E    
--24g24--------------------19-------L\--|
----------24pbr--L--22b--L--------------|
----------------------------------------|
----------------------------------------|
----------------------------------------|
----------------------------------------|


   T   T  T  T  T  T  T  T   T  T  T  T  T  T  T   T Q     Q      
--19s-17-16-14---------------------------------------------------|
---------------17-16-14------------------------------------------|
------------------------16s-14-13-11-----------------------------|
-------------------------------------14-13-11--------------------|
----------------------------------------------14s-12-9~----L\----|
-----------------------------------------------------------------|


   Q.       S  S  S   S  S  S   S  S  S   S  
--------------11--------11--------11--------|
--13b-------L----14b--L----13b--L----14b--L-|
--------------------------------------------|
--------------------------------------------|
--------------------------------------------|
--------------------------------------------|


   S  S   S  S  S  S  S  S  S  S  S  S  S  S  S  S  
--11--------11----11-------11----------------------|
-----13b--L----14----14-13----14-13-12-11----------|
------------------------------------------14-13-12-|
---------------------------------------------------|
---------------------------------------------------|
---------------------------------------------------|


      H          E     E      E      E   
--14g14b---------Lpb---Lpbr--14--14g14--|
----------------------------------------|
----------------------------------------|
----------------------------------------|
----------------------------------------|
----------------------------------------|


   |---3---|      |---3---|                 
   E   E   E      E   E   E   Q      Q      
--11---------------------------------------|
------14--11---------11--------------------|
--------------13g13------11----------------|
-----------------------------13~-----L\----|
-------------------------------------------|
-------------------------------------------|


   |--3--|  |--3--|  |--3--|  |--3--|  |--3--|  |--3--|  |--3--|  |--3
   S  S  S  S  S  S  S  S  S  S  S  S  S  S  S  S  S  S  S  S  S  S  S
--14-16-14-11-------14-16-14-11-------14-16-14-11-------14-16-14-11---
--------------14-11-------------14-11-------------14-11-------------14
----------------------------------------------------------------------
----------------------------------------------------------------------
----------------------------------------------------------------------
----------------------------------------------------------------------


   |--3--|  |--3--|  |--3--|  |--3--|  |--3--|  |--3--|  |--3--|  |--3
   S  S  S  S  S  S  S  S  S  S  S  S  S  S  S  S  S  S  S  S  S  S  S
--18-17-16-14-------------14-16-17-18-18-17-16-14-------------14-16-17
--------------16-14-15-16-------------------------16-14-15-16---------
----------------------------------------------------------------------
----------------------------------------------------------------------
----------------------------------------------------------------------
----------------------------------------------------------------------


   |--3--|  |--3--|  |--3--|  |--3--|  |--3--|  |--3--|  |--3--|  |--3
   S  S  S  S  S  S  S  S  S  S  S  S  S  S  S  S  S  S  S  S  S  S  S
--21-18-16-18-21-18-16-18-21-18-16-18-21-18-16-18-21-18-16-18-21-18-16
----------------------------------------------------------------------
----------------------------------------------------------------------
----------------------------------------------------------------------
----------------------------------------------------------------------
----------------------------------------------------------------------


   |--3--|  |--3--|  |--3--|  |--3--|  |--3--|  |--3--|  |--3--|  |--3
   S  S  S  S  S  S  S  S  S  S  S  S  S  S  S  S  S  S  S  S  S  S  S
--23-21-18-21-23-21-18-21-23-21-18-21-23-21-18-21-23-21-18-21-23-21-18
----------------------------------------------------------------------
----------------------------------------------------------------------
----------------------------------------------------------------------
----------------------------------------------------------------------
----------------------------------------------------------------------


                            |---3--|   
   H          E   E  S   S  S   S  S   
--20~---------L\----------------------|
--------------------------------------|
--------------------------------------|
---------------------8h-10p-8h-10p-8h-|
--------------------------------------|
--------------------------------------|


   |---3--|  |---3--|   |---3--|  |---3--|   |---3--|             
   S  S   S  S   S  S   S  S   S  S   S  S   S  S   S  Q     E    
-----------------------------------------------------------------|
-----------------------------------------------------------------|
-----------------------------------------------------------------|
--10p-8h-10p-8h-10p-8h-10p-8h-10p-8h-10p-8h-10p-8h-10p-8~----L\--|
-----------------------------------------------------------------|
-----------------------------------------------------------------|


  S  S  S S S  E     S  S S  S S Q      
---------------------------------------|
--------------10br---L--L--------8b----|
----------8-L-10br---L--L-8------------|
--8b-L-10-------------------10-8-------|
---------------------------------------|
---------------------------------------|


                    W           
  E  S  S   S S  E  Q.     E    
-------------------------------|
--L--8b-Lpb-L-8b-L--8------L\--|
-------------------------------|
-------------------------------|
-------------------------------|
-------------------------------|


      S S S  S    S S  S S  S S  S S S  S S  S  
----------8------------------------------------|
--------8--------------------------------------|
--10g10-----10br--L-8--------------------------|
----------------------10-8-10-8----------------|
--------------------------------10-9-8---------|
---------------------------------------11-8s-6-|


  S  S  S S  S S  S  S  S S  S  S S  S S  S  
--------------------------------------------|
--------------------------------------------|
--------------------------------------------|
----------------------------------8-10-8----|
----------8-10-8----------8-10-12--------12-|
--8-11-12--------12-11-12-------------------|


  S  S  S S  S  S S  S  S S  S S  S  S S  S  
--------------------------------------------|
--------------------------------------------|
--------------------------------------------|
--8b-L-10-8b-L-10-8b-L-10-8-----------------|
----------------------------10-8-10---------|
------------------------------------11-8-11-|


  S  S S  S S S  S S  Q.       E      W                 
-----------------------------------|-------------------|
-----------------------------------|-------------------|
-------------------8---------------|-------------------|
------------8-9-10---10~-------L\--|-------------------|
--8----8-10------------------------|-------------------|
----11-----------------------------|-------------------|
Добавлено: 22.06.2012
Другие материалы по этой песне:

Страница создана 21.02.2012
http://primanota.ru/john-petrucci/damage-control-chords.htm
Привет, Гость.
Предлагаем пройти революционный курс по гитаре.
Подарок от PrimaNota.Ru, забирай!