PrimaNota.ru - самый крупный в мире бесплатный архив песенных текстов, аккордов, табулатур и нот


Исаак Альбенис - Испанская сюита - аккорды и текст, видео

Регистрация Запомнить меня
Войти через:  Facebook Google Twitter Vk Yandex Mail.ru

Исаак Альбенис - Испанская сюита - аккорды и текст, видео

Печатать
Просмотров: 131
Испанская сюита
Исаак Альбенис
E|--7-------7-------7-------|-7-------7-------7-------|
B|--9-------9-------9-------|-9-------9-------9-------|
G|--9-----------------------|-----8---6-------6---8---|
D|--9-----------------------|-------------9-----------|
A|--7-----------------------|-------------------------|
E|--0-----------------------|-------------------------|

E|--7--------7-------7------|-7-------7-------7-------|
B|--9--------9-------9------|-9-------9-------9-------|
G|--6-h8-p6-----------------|------------------------o|
D|-----------9==============|========================o|
A|--------------------------|-------------------------|
E|--0-----------------------|-------------------------|

E|--------------------------|-5-----------------------|
B|--4-------4-------4-------|-4---------------7-------|
G|--4-------4-------4---4---|-6----------s8-------8---|
D|--4---6---7-------7-------|-------------------------|
A|--------------------------|-------------------------|
E|--0-----------------------|-------------------------|

E|--------------------7-----|--7--------7--------7----|
B|-------------------10-----|-10-------10-------10----|
G|--6-h8-p6-----------8-----|--8--------8--------8----|
D|-----------9==============|=========================|
A|--------------------------|-------------------------|
E|--------------------------|-------------------------|

E|--------------------------|-5-----------------------|
B|--4-------4-------4-------|-4-----------9---7-------|
G|--4-------4-------4---4---|-6-------8-----------8---|
D|--4---6---7-------7-------|-------------------------|
A|--------------------------|-------------------------|
E|--0-----------------------|-------------------------|

E|--------------------7-----|--7--------7--------7----|
B|-------------------10-----|-10-------10-------10----|
G|--6-h8-p6-----------8-----|--8--------8--------8----|
D|-----------9==============|=========================|
A|--------------------------|-------------------------|
E|--------------------------|-------------------------|

E|--7-------7-------7-------|-7-------7-------7-------|
B|--9-------9-------9-------|-9-------9-------9-------|
G|--9-----------------------|-----8---6-------6---8---|
D|--9-----------------------|-------------9-----------|
A|--7-----------------------|-------------------------|
E|--0-----------------------|-------------------------|

E|--7--------7-------7------|-7-------7-------7-------|
B|--9--------9-------9------|-9-------9-------9-------|
G|--6-h8-p6-----------------|-------------------------|
D|-----------9==============|=========================|
A|--------------------------|-------------------------|
E|--0-----------------------|-------------------------|

E|---7-------7-------7------|-7--------7-------7------|
B|---8-------8-------8------|-8--------8-------8------|
G|---7----------------------|-----11---9---7---9---11-|
D|---9----------------------|-------------------------|
A|--10----------------------|-------------------------|
E|--------------------------|-------------------------|

E|--7---------7-------7-----|-7-------7-------7-------|
B|--8---------8-------8-----|-8-------8-------8-------|
G|--9-h11-p9--7=============|=========================|
D|--------------------------|-------------------------|
A|--------------------------|-------------------------|
E|--------------------------|-------------------------|

E|------------------5-------|-------------------------|
B|--4-------4-------4-------|-------------------------|
G|--4-------4-------4---6---|-s11---------------8-----|
D|--4---6---7---------------|-------------------------|
A|--------------------------|-------------------------|
E|--0-----------------------|-------------------------|

E|--7--------7-------7------|--9--------9--------9----|
B|--9--------9-------9------|--9--------9--------9----|
G|--6-h8-p6-----------------|-10-------10-------10----|
D|-----------9--------------|-------------------11----|
A|--------------------------|----------11-------------|
E|--0-----------------------|--9----------------------|

E|--5-------5-------5-------|-5--------5--------------|
B|------4---5-------2-------|-2-h4-p2--0--------------|
G|--6-----------------------|-------------------------|
D|--4-------------------4---|-------------------------|
A|--------------------------|-2----------------2------|
E|--------------------------|-------------------------|

E|--4---2---0===============|=========================|
B|--0-------0-------0-------|-0-------0-------0-------|
G|----------1-------1-------|-1-------1-------1-------|
D|--------------------------|-------------------------|
A|--------------------------|-------------------------|
E|--0-----------------------|-------------------------|

E|--------------------------|-------------------------|
B|--9---7---5===============|=========================|
G|--5-------5-------5-------|-5-------5-------5-------|
D|----------6-------6-------|-6-------6-------6-------|
A|--------------------------|-------------------------|
E|--0-----------------------|-------------------------|

E|--4---2---0===============|=========================|
B|--0-------0-------0-------|-0-------0-------0-------|
G|----------1-------1-------|-1-------1-------1-------|
D|--------------------------|-------------------------|
A|--------------------------|-------------------------|
E|--0-----------------------|-------------------------|

E|--------------------------|-------------------------|
B|--9---7---5===============|=========================|
G|--5-------5-------5-------|-5-------5-------5-------|
D|----------6-------6-------|-6-------6-------6-------|
A|--------------------------|-------------------------|
E|--0-----------------------|-------------------------|

E|--4---2---0===============|=================--------||
B|--0-------0-------0-------|-0-----------------------||
G|----------1-------1-------|-1-----------------------||
D|--------------------------|-------------------------||
A|--------------------------|-----------------2-------||
E|--0-----------------------|-------------------------||


Meno mosso
E|--------------------------|---------2---------------|
B|------------------0-------|-1-----------------------|
G|------------------0-------|-2-----------------------|
D|--------------------------|-------------------------|
A|----------2---------------|-------------------------|
E|--0-----------------------|-------------------------|

E|--------------------------|---------2---------------|
B|------------------0-------|-1-----------------------|
G|------------------0-------|-2-----------------------|
D|--------------------------|-------------------------|
A|----------2---------------|-------------------------|
E|--0-----------------------|-------------------------|

E|--0-----------------------|-------------------------|
B|--------------------------|-4---------------0-------|
G|------------------0-------|-4-----------------------|
D|--------------------------|-7-----------------------|
A|----------2---------------|-------------------------|
E|--0-----------------------|-------------------------|

E|--7-----------------------|-----2---3---5---3h5p3---2---|
B|----------0---------------|---------4-------------------|
G|------------------0-------|-2---------------------------|
D|--------------------------|-----------------------------|
A|--------------------------|-2---------------------------|
E|--0-----------------------|-----------------------------|

E|--7---0---2---3---2h3p2---0---|-------------------------|
B|----------0-----------0-------|-4-----------0---4-------|
G|----------------------0-------|-2---4---3-----------5---|
D|------------------------------|-------------------------|
A|------------------------------|-2-----------------------|
E|--0---------------------------|-------------------------|

E|------------------------------|-------------------------|
B|--0===========================|=========================|
G|------------------------------|-------------------------|
D|------2---4---5---4h5p4---2---|-1-----------------------|
A|------------------------------|-----3---2---0-----------|
E|--0---------------------------|-----------------3---2---|

E|--0-----------------------|-------------------------|
B|--------------------------|-4---------------0-------|
G|------------------0-------|-4-----------------------|
D|--------------------------|-7-----------------------|
A|----------2---------------|-------------------------|
E|--0-----------------------|-------------------------|

E|--7-----------------------|-----2---4---5---4h5p4---2---|
B|----------0---------------|---------4-------------------|
G|--------------------------|-2---------------------------|
D|------------------6-------|-----------------------------|
A|--------------------------|-2---------------------------|
E|--0-----------------------|-----------------------------|

E|--7---0---2---4---2h4p2---0---|-5---------------4-------|
B|----------0-----------0-------|-4---2---4---------------|
G|----------------------1-------|-------------4---2---4---|
D|------------------------------|-------------------------|
A|------------------------------|-2-----------------------|
E|--0---------------------------|-------------------------|

E|--0=======================|=========================||
B|------------------0-------|-------------------------||
G|--1---------------1-------|-------------------------||
D|--------------------------|-2-----------------------||
A|----------2---------------|-------------------------||
E|--0-----------------------|-------------------------||

E|--0-----------------------|-------------------------|
B|--1-----------------------|-3-----------------------|
G|--0---------------0-------|-1---------------1-------|
D|----------2---------------|-----------------3-------|
A|--3=======================|=========================|
E|--------------------------|-------------------------|

E|--3-----------------------|-----1---3--h4---3h4p3-------|
B|--1-----------------------|-------------------------6---|
G|--0---------------0-------|-1---------------------------|
D|--2-------2---------------|-3---------------------------|
A|--3=======================|=====------------------------|
E|--------------------------|-----------------------------|

E|----------3-----------3---|-1h3p1---0-------0---1-------|
B|--5--h6-------6---5-------|-------------3-----------3---|
G|--------------------------|-----------------------------|
D|--------------------------|-----------------------------|
A|--------------------------|-----------------------------|
E|--------------------------|-----------------------------|

E|--0-----------------------|-----------------------------|
B|------------------1-------|-----------------------------|
G|--------------0-----------|-----3---1h3p1---0---1---3---|
D|--------------2-----------|-----------------------------|
A|--3-----------------------|-----------------------------|
E|--------------------------|-----------------------------|

E|--0-----------------------|-------------------------|
B|--1-----------------------|-3-----------------------|
G|--0---------------0-------|-1---------------1-------|
D|----------2---------------|-----------------3-------|
A|--3=======================|=========================|
E|--------------------------|-------------------------|

E|--3-----------------------|-----------------6--h8---|
B|--1-----------------------|-----6---8--h9-----------|
G|--0---------------0-------|-1-----------------------|
D|--2-------2---------------|-3-----------------------|
A|--3=======================|=====--------------------|
E|--------------------------|-------------------------|

E|--6h8p6-----------------------|-----------------------------|
B|----------9---8---6---8--h9---|-6h8p6---------------6---8---|
G|------------------------------|---------9---7--h9-----------|
D|------------------------------|-----------------------------|
A|------------------------------|-----------------------------|
E|------------------------------|-----------------------------|

E|--0-------0-------0-------|-0-------0-------0-------|
B|--1-------1-------1-------|-1-------1-------1-------|
G|--0-----------------------|-----4---2---0---2---4---|
D|--2-----------------------|-------------------------|
A|--3-----------------------|-------------------------|
E|--------------------------|-------------------------|

E|--0--------0-------0-------|-0-------0-------0-------|
B|--1--------1-------1-------|-1-------1-------1-------|
G|--2-h4-p2--0===============|=========================|
D|---------------------------|-------------------------|
A|---------------------------|-------------------------|
E|---------------------------|-------------------------|

E|--0-------0-------0-------|-0-------0-------0-------|
B|--1-------1-------1-------|-1-------1-------1-------|
G|--0-----------------------|-------------------------|
D|--2-----------------------|-------------------------|
A|--3-----------------------|-----2---0-------0---2---|
E|--------------------------|-------------3-----------|

E|--0--------0-------0-------|-0-------0-------0-------|
B|--1--------1-------1-------|-1-------1-------1-------|
G|---------------------------|-------------------------|
D|---------------------------|-------------------------|
A|--0-h2-p0------------------|-------------------------|
E|-----------3===============|=========================|

E|--0--------0-------0-------|-0-------0-------0-------|
B|---------------------------|-------------------------|
G|--5-h7-p5--5-------5-------|-5-------5-------5-------|
D|-----------4===============|=========================|
A|--0------------------------|-------------------------|
E|---------------------------|-------------------------|

E|---------------------------|-------------------------||
B|--5--------5-------5-------|-4-------4-------4-------||
G|--2-h4-p2--2-------2-------|-2-------2-------2-------||
D|-----------4---------------|-4-------4-------4-------||
A|--2------------------------|-2-----------------------||
E|---------------------------|-------------------------||

E|--0-----------------------|-------------------------|
B|--------------------------|-4---------------0-------|
G|------------------0-------|-4-----------------------|
D|--------------------------|-7-----------------------|
A|----------2---------------|-------------------------|
E|--0-----------------------|-------------------------|

E|--7-----------------------|-----2---3---5---3h5p3---2---|
B|----------0---------------|---------4-------------------|
G|------------------0-------|-2---------------------------|
D|--------------------------|-----------------------------|
A|--------------------------|-2---------------------------|
E|--0-----------------------|-----------------------------|

E|--7---0---2---3---2h3p2---0---|-------------------------|
B|----------0-----------0-------|-4-----------0---4-------|
G|----------------------0-------|-2---4---3-----------5---|
D|------------------------------|-------------------------|
A|------------------------------|-2-----------------------|
E|--0---------------------------|-------------------------|

E|------------------------------|-------------------------|
B|--0===========================|=========================|
G|------------------------------|-------------------------|
D|------2---4---5---4h5p4---2---|-1-----------------------|
A|------------------------------|-----3---2---0-----------|
E|--0---------------------------|-----------------3---2---|

E|--0-----------------------|-------------------------|
B|--------------------------|-4---------------0-------|
G|------------------0-------|-4-----------------------|
D|--------------------------|-7-----------------------|
A|----------2---------------|-------------------------|
E|--0-----------------------|-------------------------|

E|--7-----------------------|-----2---4---5---4h5p4---2---|
B|----------0---------------|---------4-------------------|
G|--------------------------|-2---------------------------|
D|------------------6-------|-----------------------------|
A|--------------------------|-2---------------------------|
E|--0-----------------------|-----------------------------|

E|--7---0---2---4---2h4p2---0---|-5---------------4-------|
B|----------0-----------0-------|-4---2---4---------------|
G|----------------------1-------|-------------4---2---4---|
D|------------------------------|-------------------------|
A|------------------------------|-2-----------------------|
E|--0---------------------------|-------------------------|

E|--0=======================|=========================|
B|------------------0-------|-------------------------|
G|--1---------------1-------|-------------------------|
D|--------------------------|-2-----------------------|
A|----------2---------------|-------------------------|
E|--0-----------------------|-------------------------|

E||---4---2---0===============|=========================|
B||---1----------------------=|---------1---------------|
G||o--------------------------|-1-----------------------|
D||o------------------2-------|-------------------------|
A||-----------3---------------|-------------------------|
E||---0-----------------------|-------------------------|

E|--4---2---0===============|-0========================||
B|--0-----------------------|---------0----------------||
G|--------------------------|-1-----------------------o||
D|------------------2-------|-------------------------o||
A|----------2---------------|--------------------------||
E|--0-----------------------|--------------------------||

E|--0-----------------------|-------------------------|
B|--1---3---1---------------|-5---3-------------------|
G|--0-----------------------|-5-------5---------------|
D|--2-----------------------|-4-----------------------|
A|--3=======================|-0=======================|
E|--------------------------|-------------------------|

E|--------------------------|---------0---------------|
B|------------------4=======|=====----1---------------|
G|------------------4=======|=====2---0-------0---2---|
D|----------4---------------|-------------4-----------|
A|--2-----------------------|-------------------------|
E|--------------------------|-------------------------|

E|--------------------------|---------0---------------|
B|------------------4=======|=====----1---------------|
G|------------------4=======|=====2---0-------0---2---|
D|----------4---------------|-------------4-----------|
A|--2-----------------------|-------------------------|
E|--------------------------|-------------------------|

E|--------------------------|-------------------------|
B|--------------------------|-------------------------|
G|--------------------------|-----------------2--h5---|
D|--------------------------|---------2--h4-----------|
A|--2---------------0---3---|-2-----------------------|
E|----------0--h2-----------|-------------------------|

E|---------------5---8-|-7----------------------||-------------|
B|-------5--h7---------|-----7---10-------9-----||-------------|
G|--4------------------|-8--------6---8---------||-------------|
D|---------------------|-9----------------7---9-||--D.C.-al-%--|
A|---------------------|------------------------||-------------|
E|---------------------|------------------7-----||-------------|

E|--------------------------|-0-----------0---4---7---|
B|----------------------0---|---------0---------------|
G|------1-----------1-------|-----1-------------------|
D|------2-------2-----------|-------------------------|
A|----------2---------------|-------------------------|
E|--0-----------------------|-------------------------|

E|------------------------|-------------------------||
B|----------------------------|-9-----------------------||
G|----------------------------|-9-----------------------||
D|----------------------------|-9-----------------------||
A|----------------------------|-------------------------||
E|----------------------------|-0-----------------------||
Добавлено: 06.08.2015
Другие материалы по этой песне:

Страница создана 17.11.2013
http://primanota.ru/isaac-albeniz/ispanskaya-syuita-chords.htm
Привет, Гость.
Предлагаем пройти революционный курс по гитаре.
Подарок от PrimaNota.Ru, забирай!