PrimaNota.ru - самый крупный в мире бесплатный архив песенных текстов, аккордов, табулатур и нот


Исаак Альбенис - Кордоба - аккорды и текст, видео

Регистрация Запомнить меня
Войти через:  Facebook Google Twitter Vk Yandex Mail.ru

Исаак Альбенис - Кордоба - аккорды и текст, видео

Печатать
Просмотров: 139
Кордоба
Исаак Альбенис
Строй: DADGBE
Размер: 3/4
 
E|---|---|---|
B|---|---|---|
G|---|---|---|
D|---|---|---|
A|-3-|-3-|-3-|
D|-3-|-3-|-3-|
dolce

E|---|-3-|---------3-|
B|---|-3-|-3-------3-|
G|---|-3-|-3-------3-|
D|---|---|-3---------|
A|-3-|-3-|-----------|
D|-3-|-3-|-----------|

E|-6-------5-------3-|-5-------1-|-----------------3-|
B|-3-------5-------3-|-5-------3-|-3-------5-------3-|
G|---------5-------3-|-5-------2-|-2-------3-------3-|
D|-------------------|-----------|-3-------5---------|
A|-3-----------------|-----------|-------------------|
D|-3-----------------|-----------|-------------------|

E|-5-|-3-|-3-|-3-|---------3-|-6-------4-------3-|
B|-5-|-3-|-3-|-2-|-2-------2-|---------5-------2-|
G|-5-|-3-|-3-|-3-|-3-------3-|-3-------5-------3-|
D|---|---|---|---|-3---------|-------------------|
A|---|-3-|-3-|-3-|-----------|-------------------|
D|---|-3-|-3-|-3-|-----------|-------------------|

E|-4---------|-----------------3-|-4-|-3-|-3-|
B|-5-------6-|-2-------5-------2-|-5-|-2-|-2-|
G|-5-------5-|-1-------3-------3-|-5-|-3-|-3-|
D|---------6-|-3-------5---------|---|---|---|
A|-----------|-------------------|---|-3-|-3-|
D|-----------|-------------------|---|-3-|-3-|

E|-0----------|-----------|
B|------------|-----------|
G|-9----------|-----------|
D|-8-------11-|-10------8-|
A|-10---------|-----------|
D|------------|-----------|

E|-------------------|-4-----------------|-4-|
B|-6-----------------|-6-----------------|-3-|
G|-5-----------------|-5-----------------|-1-|
D|-6-------5---------|-------------------|---|
A|-----------------8-|-6-------4-------3-|-1-|
D|-------------------|-------------------|---|

E|-4-|-4-|-4-|-5-|-5-|-10--------------8--|
B|-3-|-3-|-3-|-6-|-6-|-10--------------10-|
G|-1-|-1-|-1-|-7-|-7-|-10--------------9--|
D|---|---|---|-7-|-7-|-12--------------7--|
A|-1-|-1-|-1-|-0-|-0-|--------------------|
D|---|---|---|---|---|--------------------|

E|-10------8--|-10------12------13-|-10------8-------10-|
B|-10------10-|-10------13------10-|-11------10------11-|
G|-10------9--|-10------12------10-|-10------10------10-|
D|-12------7--|-12------10---------|-8---------------8--|
A|------------|--------------------|---------8----------|
D|------------|--------------------|--------------------|

E|-11--------------10-|-8-------10------8--|------------------|
B|-----------------11-|-10------11------10-|-11------------10-|
G|-12--------------10-|-10--------------10-|-9-------------9--|
D|-----------------8--|---------8----------|-12------------11-|
A|--------------------|-8---------------8--|-10------------12-|
D|-13-----------------|--------------------|------------------|

E|------------|---|-13--------------12-|-13------12------10-|
B|-8-------10-|10-|-10--------------13-|-10------13------10-|
G|-9-------9--|9--|-10--------------12-|-10------12------10-|
D|-12------11-|11-|-----------------10-|---------10------12-|
A|-13------12-|12-|--------------------|--------------------|
D|------------|---|--------------------|--------------------|

E|-8-------------10-|-8-------6-------5-|-3---------------1-|
B|-10------------10-|-10------6-------6-|-3---------------3-|
G|-9-------------10-|-9-------7-------5-|-3---------------2-|
D|-7-------------12-|-7-------8---------|-5---------------0-|
A|------------------|-----------------8-|-------------------|
D|------------------|-------------------|-------------------|

E|-3-------1-------0-|-0---------------0-|-0-|0--|
B|-3-------3-------3-|-2-----------------|-2-|2--|
G|-3-------2-------1-|-----------------7-|---|---|
D|-5-------0---------|-2---------------8-|-2-|2--|
A|-----------------1-|-0---------------7-|-0-|0--|
D|-------------------|-----------------6-|---|---|

E|-13°---------12°-|-13°-----12°-----10°-|-8°--------------10°-|
B|-10--------------|-10--------------10--|-----------------10--|
G|-10----------12--|-10------12------10--|-9---------------10--|
D|-------------10--|---------10----------|-7-------------------|
A|-----------------|---------------------|---------------------|
D|-----------------|---------------------|---------------------|

E|-8°------6°------5°|-3°--------------1°-|-3°------1°------0°-|
B|-------------------|--------------------|--------------------|
G|-9-------7-------5-|-3---------------2--|-3-------2-------1--|
D|-7-------8---------|-5---------------0--|-5-------0----------|
A|-----------------8-|--------------------|-----------------1--|
D|-------------------|--------------------|--------------------|

E|5°--------------5°-|--------5-----------1-|---1-----0--------|
B|3---------------2--|------6-----6-------3-|---3-----3------2-|
G|2---------------0--|----7-------7-------2-|---1-----1------0-|
D|-------------------|--7---------7---------|------------------|
A|0------------------|5---------------4---3-|2-----1-----0-----|
D|-------------------|----------------------|------------------|

E|--------5---------1-|---1-----0-------|1-------3-------5-----|
B|------6----6------3-|---3-----3-----2-|----3-------3-------6-|
G|----7------7------2-|---1-----1-----0-|----2-------2-------7-|
D|--7--------7--------|-----------------|0---------------------|
A|5-------------4---3-|2-----1-----0----|----------------------|
D|--------------------|-----------------|----------------------|

E|12----------------|10------8-------10-----|5-----------------|
B|---10----10----10-|----10------10------10-|---8-----8------8-|
G|---12----12----12-|----10------10------10-|---6-----6------6-|
D|------------------|0----------------------|------7-----------|
A|------12----0-----|----------------0------|7-----------0-----|
D|11----------------|-----------------------|------------------|

E|--------------------5---|----3-------5-------3-|
B|------------6-------6---|----5---------------5-|
G|----7-------------------|----------------------|
D|----7-------7-----------|----------------------|
A|8-------7-------5-------|4-----------2---4-----|
D|------------------------|----------------------|

E|----1-------5-------0---|----------------------|
B|------------6-------3---|----2-------2---------|
G|----2---------------1---|----2-------3---2---0-|
D|0-----------------------|--------5-------3---2-|
A|--------3-------1-------|0---------------------|
D|------------------------|----------------------|

E|1-------3------5----|12---------------|10------8------10-----|
B|----3-------3-----3-|----10---10---10-|----11-----11------11-|
G|----2-------2-----2-|----9----9----9--|----10-----10------10-|
D|0-------------------|-----------------|----------------------|
A|--------------------|-----------------|----------------------|
D|--------------------|10---------------|8---------------------|

E|--------------------|3-----5-----3----|8-------6-------5-----|
B|----6-------6-----6-|---2-----2-----2-|----6-------6-------6-|
G|----5-------5-----5-|3----------------|--------5-------8-----|
D|--------------------|-----------------|7---------------------|
A|--------------------|-----------------|----------------------|
D|3-------------------|-----------------|----------------------|

E|---0-7----12---|12------10-----8-----|13------12------8------|
B|9-------5------|------------9-----10-|----12------10------10-|
G|-------------9-|----9-------------9--|----13--------------9--|
D|12-------------|10------9------7-----|12------10------7------|
A|---------------|---------------------|-----------------------|
D|---------------|---------------------|-----------------------|

E|10------12------8-----|8-----------7-----|5------------------|
B|----9-------10------7-|----9---9-------9-|----5-----5------5-|
G|----9-----------------|----7---7-------7-|----6-----6------6-|
D|9-------10------------|------------------|-------------------|
A|----------------6-----|7-----------------|0------------------|
D|----------------------|------------------|-------------------|

E|----0-------0-------0-|
B|8-------10------11----|
G|----------------------|
D|5-------7-------8-----|
A|0---------------------|
D|----------------------|

E|12-----------------|10------8-------10------|5---------------|
B|----11----11----11-|----11------11------11--|----5----5----5-|
G|----12----12----12-|----12------12------12--|----6----6----6-|
D|14-----------------|------------------------|7---------------|
A|0------------------|------------------------|----------------|
D|-------------------|------------------------|----------------|

E|----0------0------0-|13----------12-----|10------8----10-----|
B|8------10-----11----|----11--11------11-|----11----11-----11-|
G|--------------------|----12--12------12-|----12----12-----12-|
D|5------7------8-----|-------------------|--------------------|
A|0-------------------|0------------------|--------------------|
D|--------------------|-------------------|--------------------|

E|5---------------------|-----------5-----8-|---------------8--|
B|----5-------5-------5-|----6------6-----6-|---5-----8-----8--|
G|----6-------6-------6-|----5------------5-|---5-----5--------|
D|7---------------------|7-------5--7--5--7-|5--7--5--------10-|
A|----------------------|-----------8-------|---------8--7-----|
D|----------------------|-------------------|------------------|

E|----1-------6-------1-|---0-----5-----3---|1---0-----------5-|
B|----------------------|-------------------|-------3--5--6----|
G|----3-------3-------3-|---2-----2-----2---|2-----------------|
D|0-----------0---2---0-|---0---------------|0-----------------|
A|--------4-------------|4-----4--2--0------|-------------4--3-|
D|----------------------|-------------------|------------------|

E|0---1---0-----------0-|-------------------|------------------|
B|3-----------3---2-----|3--5--3----------3-|2-----------------|
G|1---------------0-----|3---------5---3----|2-----------------|
D|----------------------|3------------------|5-----------------|
A|2-------1-------0-----|-------------------|0---1--0-----0----|
D|----------------------|6------------------|----------6-----2-|

E|0-----------------------|0-------1-------3-----|
B|----3-3-3b--3-------3---|------3-----3-------3-|
G|----3-3-3---3-------3---|------------3-------3-|
D|----2b2b2---2b------2---|----2-------2-------2-|
A|0---------------0-------|0---------------0-----|
D|------------------------|----------------------|

E|0---------------1-------|----------------------|
B|----3-3-3b--3-------3---|3-------2-------------|
G|----3-3-3---3-------3---|------2-----2-------2-|
D|----2b2b2---2b------2---|------------2-------2-|
A|0---------------0-------|0---4-----------0-----|
D|------------------------|----------------------|

E|1-------0-------1-----|0-------0-------0------|0--------0----|
B|1-------1-------1-----|1-------3-------2------|3--------3----|
G|2-------0-------2-----|0-------1-------2------|3--------3----|
D|----------------------|2---2---2---2---2---2--|2--------2----|
A|----3-------3-------3-|3b--3b--1b--1b--0b--0b-|--------------|
D|3---------------------|-----------------------|6--6--6-----6-|

E|0-------------------5°-|----------------------|--------------|
B|2----------------------|----------------------|------0---2---|
G|-----------------------|--------0-------2-----|2-----0---0---|
D|------------7{---------|4---------------------|5-------------|
A|0---0------------------|0---0-------0-------0-|4--4----0---0-|
D|-----------------------|0---------------------|2-------------|

E|2-------3-------5-----|----------------------|---------------|
B|3---------------------|2-------3-------5-----|---------------|
G|2-------0-------2-----|0---------------------|2---------2----|
D|0---------------------|--------0-------2-----|4--------------|
A|----0-------0-------0-|----0-------0-------0-|0--0---0-----0-|
D|4---------------------|2---------------------|0--------------|

E|----------------------|----------------------|---------------|
B|----------------------|--------0-------1-----|0--------------|
G|2---------------2-----|2-------0-------0-----|0---------2----|
D|4---------------------|5---------------------|2--------------|
A|3---0-------0-------0-|4---4-------0-------0-|4--0---0-----0-|
D|1---------------------|2---------------------|---------------|

E|2-------3-------5-----|
B|3---------------------|
G|2-------0-------2-----|
D|4---------------------|
A|0---0-------0-------0-|
D|0---------------------|

E|5-------7------9----|10----12----14---|9-------10------12----|
B|2-------------------|10---------------|----------------------|
G|2-------4------6----|------9-----11---|12--------------9-----|
D|5-------------------|12---------------|11------12------------|
A|0---0-------0-----0-|9--0-----0-----0-|7---0-------0-------0-|
D|2-------------------|-----------------|----------------------|

E|-------------------|5-----------------|5-------7-------9-----|
B|10-----------------|4-----------------|2-------0-------------|
G|11-----------------|-------------2----|2---------------6-----|
D|-------------7-----|4-----------------|5---------------------|
A|0---0----0-------0-|0---0----0------0-|4---0-------0-------0-|
D|0------------------|1-----------------|2---------------------|

E|7--------5-----|0---------------------|----------------------|
B|0--------------|----1-1-1b--1-------1-|--------1-------3-----|
G|6--------2-----|----0-0-0---0-------0-|------0-----0-------0-|
D|5--------------|----2-2-2---2-------2-|------------2-------2-|
A|7--0--0------0-|----0b0b0---0b--0-----|----0-----------0-----|
D|---------------|0---------------------|0---------------------|

E|0------2------3-----|0-------------------|-------------------|
B|-----1-----1------1-|---1-1-1b--1------1-|4------------------|
G|-----------0------0-|---0-0-0---0------0-|----5-5-5---5----5-|
D|---2-------2------2-|---2-2-2---2------2-|----5-5-5---5----5-|
A|--------------0-----|---0b0b0---0b--0----|----6-6-6---6--0---|
D|0-------------------|0-------------------|0------------------|

E|----------------------|-------------------|------------------|
B|--------1-------3-----|4------6-----8-----|3-----------------|
G|------0-----0-------0-|-----5----0------0-|---2------2-----2-|
D|------------1-------1-|-------------------|----------4-----4-|
A|----0-----------0-----|---6---------0-----|-----5-5-----3----|
D|0---------------------|0------------------|0-----------------|

E|--------0-------3-------|--------5-------------|
B|3-------0-------3-------|7-------3-------1-----|
G|0-------0-------0-------|5-------5-------------|
D|0---0-------0-------0---|7---0-------0---4---0-|
A|2-----------------------|0---------------------|
D|------------------------|----------------0-----|

E|----------------7-------|8-------9-------12----|
B|0-------6-------6-------|7---------------------|
G|4-------4-------4-------|5-------6-------9-----|
D|3---0-------0-------0---|----0-------0-------0-|
A|------------------------|0---------------------|
D|6-----------------------|----------------------|

E|10------15------12------|14------12------10------|
B|10----------------------|13----------------------|
G|0-------12------9-------|--------9-------7-------|
D|----0-------0-------0---|----0-------0-------0---|
A|------------------------|0-----------------------|
D|9-----------------------|------------------------|

E|7-------8-------9-----|9-------12------10------|
B|6---------------------|7-----------------------|
G|4-------5-------6-----|6-------9-------7-------|
D|----0-------0-------0-|----0-------0-------0---|
A|----------------------|0-----------------------|
E|6---------------------|------------------------|

E|101010108-8-8-8-6-6-6-6-|101010108-8-8-8-6-6-6-6-|
B|6-6-6-6-6-6-6-6-6-6-6-6-|6-6-6-6-6-6-6-6-6-6-6-6-|
G|7-7-7-7-7-7-7-7-7-7-7-7-|7-7-7-7-7-7-7-7-7-7-7-7-|
D|6-6-6-6-6-6-6-6-6-6-6-6-|6-6-6-6-6-6-6-6-6-6-6-6-|
A|8-8-8-8-8-8-8-8-8-8-8-8-|8-8-8-8-8-8-8-8-8-8-8-8-|
D|6-6-6-6-6-6-6-6-6-6-6-6-|6-6-6-6-6-6-6-6-6-6-6-6-|

E|101010108-8-8-8-6-6-6-6-|------------------------|
B|6-6-6-6-6-6-6-6-6-6-6-6-|3-3-3-3-----------------|
G|7-7-7-7-7-7-7-7-7-7-7-7-|3-3-3-3-5-5-5-5-3-3-3-3-|
D|6-6-6-6-6-6-6-6-6-6-6-6-|3-3-3-3-3-3-3-3-3-3-3-3-|
A|8-8-8-8-8-8-8-8-8-8-8-8-|5-5-5-5-5-5-5-5-5-5-5-5-|
D|6-6-6-6-6-6-6-6-6-6-6-6-|6-6-6-6-6-6-6-6-6-6-6-6-|

E|------------------------|------------------------|
B|3-3-3-3-----------------|3-3-3-3-----------------|
G|3-3-3-3-5-5-5-5-3-3-3-3-|3-3-3-3-5-5-5-5-3-3-3-3-|
D|3-3-3-3-3-3-3-3-3-3-3-3-|3-3-3-3-3-3-3-3-3-3-3-3-|
A|5-5-5-5-5-5-5-5-5-5-5-5-|5-5-5-5-5-5-5-5-5-5-5-5-|
E|6-6-6-6-6-6-6-6-6-6-6-6-|6-6-6-6-6-6-6-6-6-6-6-6-|

E|------------------------|----------------------|
B|3-3-3-3-----------------|----------------------|
G|3-3-3-3-5-5-5-5-3-3-3-3-|--------0-------1-----|
D|3-3-3-3-3-3-3-3-3-3-3-3-|4---------------------|
A|5-5-5-5-5-5-5-5-5-5-5-5-|5---0-------0-------0-|
D|6-6-6-6-6-6-6-6-6-6-6-6-|7---------------------|

E|------------------------|----------------------|
B|------------------------|--------0-------1-----|
G|2---------------2-------|2-------0-------0-----|
D|4---------------4-------|5---------------------|
A|3---0-------0-------0---|----0-------0-------0-|
D|------------------------|----------------------|

E|------------------------|2-------3-------4-----|
B|2-------5-------8-------|3---------------------|
G|0-------0-------0-------|--------0-------1-----|
D|2-------2-------5-------|4-------2-------0-----|
A|----0-------0-------0---|----0-------0-------0-|
D|------------------------|----------------------|

E|5----------5----|5-------7-------8----|9-------12------17----|
B|4----------4----|2--------------------|8---------------------|
G|5----------5----|0-------4-------5----|6-------9-------14----|
D|4----------4----|---------------------|----------------------|
A|----0---0-----0-|----0-------0------0-|----0-------0-------0-|
D|----------------|---------------------|----------------------|

E|13--------------12-|13------12------10---|8---------------10-|
B|10-----------------|10--------------10---|10--------------10-|
G|10--------------12-|10------12------10---|9---------------10-|
D|----------------10-|--------10------12---|7---------------12-|
A|-------------------|---------------------|-------------------|
D|-------------------|---------------------|-------------------|

E|8-------6-------5-|3---------------1------|3-------1-------0-|
B|10------6-------6-|3---------------3------|3-------3-------3-|
G|9-------7-------5-|3---------------2------|3-------2-------1-|
D|7-------8---------|5---------------0------|5-------0---------|
A|----------------8-|-----------------------|----------------1-|
D|------------------|-----------------------|------------------|

E|5---------5-|1-------3-------5-------|12---------------------|
B|6---------2-|----3-------3-------6---|----10------10------10-|
G|7---------0-|----2-------2-------7---|----12------12------12-|
D|7-----------|0-----------------------|-----------------------|
A|0-----------|----------------0-------|--------12------0------|
D|------------|------------------------|11---------------------|

E|10------8-------10------|5---------------------|
B|----10------10------10--|----8-------8-------8-|
G|----10------10------10--|----6-------6-------6-|
D|0-----------------------|--------7-------------|
A|----------------0-------|7---------------0-----|
D|------------------------|----------------------|

E|------------1-------5---|----3-------5-------3-|
B|----3---------------6---|----5---------------5-|
G|----2-------2-----------|----------------------|
D|3-------2-------0-------|----------------------|
A|------------------------|4-----------2---4-----|
D|------------------------|----------------------|

E|----1-------5-------0-|--------------------|1-----3-----5----|
B|------------6-------3-|---2------2---------|---3-----3-----3-|
G|----2---------------1-|---2------3---2---0-|---2-----2-----2-|
D|0---------------------|------5-------3---2-|0----------------|
A|--------3-------1-----|0-------------------|-----------------|
D|----------------------|--------------------|-----------------|

E|12---------------|10----8------10-----|5---------------------|
B|----10---10---10-|---11----11------11-|----6-------6-------6-|
G|----9----9----9--|---10----10------10-|----5-------5-------5-|
D|-----------------|--------------------|----------------------|
A|-----------------|--------------------|----------------------|
D|10---------------|8-------------------|3---------------------|

E|-------------------|8------------0-----|1--3---5-------------|
B|10-----8-----10----|----11--10---3-----|---3-------3-------2-|
G|----6-----6------5-|-------------1-----|---2-------2-------0-|
D|8------------------|11------10---------|---------------------|
A|-------------------|8-------8----3---1-|0--------------------|
D|-------------------|8------------------|---------------3---2-|

E|----------------1---5-|0------1-----3----|0------------------|
B|------------3---3---6-|----2-----2-----2-|-------------------|
G|--------2---2---------|----3-----3-----3-|----6----6-------6-|
D|----3---3-------------|0-----------------|8--------7---5-----|
A|----5-----------------|------------------|-------------------|
D|0---------------------|------------------|-------------------|

E|------------------------|----0-------0-------0-|
B|10------8-------6-------|11------10------8-----|
G|----7-------6-------7---|----------------------|
D|----------------0-------|--------7-------8-----|
A|8-------7---------------|10--------------------|
D|------------------------|----------------------|

E|------------------------|----0-----------------|
B|----6---------------6---|------------1---------|
G|----7-------10------7---|----7-------3---0-----|
D|7-------8-------7-------|6-------------------7-|
A|------------------------|--------0-------------|
D|------------------------|----------------------|

E|----0--1--3--5--3-|-1--3--0--1----|-0-------1-------3-----|
B|-3--2--3--5--6--5-|-3--5--2--3--3-|-----2-------2-------2-|
G|-2--0--2--3--7--3-|-2--3--0--2--2-|-----3-------3-------3-|
D|-3----------------|-------------3-|-0---------------------|
A|------------------|---------------|-----------------------|
D|-0----------------|---------------|-----------------------|

E|-0--------------|--------1-------5-----|-----0--0---------|
B|----2--2------2-|3-------------------6-|-10---------3-----|
G|-3-----2--0-----|----2-------2---------|----------------1-|
D|----------------|3-------2-------0-----|-----7--7-------3-|
A|----------------|----------------------|------------1-----|
D|----------------|----------------------|-10---------------|

E|---------------------|---------------------|--------5------1-|
B|3-------5-------6----|10------8-------2----|------6---6----3-|
G|2-------3-------5----|9-------7-------2--0-|----7-----7----2-|
D|3-------5-------7----|10------8-------3--2-|--7-------7------|
A|0---0-------0------0-|----0-------0------0-|5-----------4--3-|
D|---------------------|---------------------|-----------------|

E|----1-------0--------|--------5----------1-|---1-----0-------|
B|----3-------3------2-|------6----6-------3-|---3-----3-----2-|
G|----1-------1------0-|----7------7-------2-|---1-----1-----0-|
D|---------------------|--7--------7---------|-----------------|
A|2-------1------0-----|5--------------4---3-|2-----1-----0----|
D|---------------------|---------------------|-----------------|

E|------------------------|----0---1---3---5---3-|
B|------------------------|----2---3---5---6---5-|
G|------------0---2---0---|----0---2---3---7---3-|
D|----2---3---2---3---2---|3---------------------|
A|----4---5---------------|5---------------------|
D|0-----------------------|----------------------|

E|1---0°--1°--3°--5°--3°--|1°-|
B|3---2---3---5---6---5---|3--|
G|2-----------------------|---|
D|------------------------|---|
A|------------------------|---|
D|------------------------|---|

E|5-----------------------|10-|
B|2-----------------------|10-|
G|0-----------------------|10-|
D|------------------------|---|
A|0-----------------------|---|
D|------------------------|0--|
Добавлено: 23.12.2013
Другие материалы по этой песне:
  • Аккорды и текст

Страница создана 23.12.2013
http://primanota.ru/isaac-albeniz/kordoba-chords.htm
Привет, Гость.
Предлагаем пройти революционный курс по гитаре.
Подарок от PrimaNota.Ru, забирай!