PrimaNota.ru - самый крупный в мире бесплатный архив песенных текстов, аккордов, табулатур и нот


Исаак Альбенис - Маллёрка (Баркаролла) - аккорды и текст

Регистрация Запомнить меня
Войти через:  Facebook Google Twitter Vk Yandex Mail.ru

Исаак Альбенис - Маллёрка (Баркаролла) - аккорды и текст

Печатать
Просмотров: 111
Маллёрка (Баркаролла)
Исаак Альбенис
Строй: DADGBE
E||--------------------|--------------------|
B||-------------2------|-------------2------|
G||----3--2-------3--2-|----3--2-------3--2-|
D||----3-----2---------|----3-----2---------|
A||-------0----------0-|-------0----------0-|
D||-0------------------|-0------------------|
 
E|--------------------|--------------------|-5-------0-3-5-8-6-|
B|------------6-------|----------------6---|----3--2-----------|
G|------------7-------|-------------7------|----2--3-----------|
D|----7=====--7-------|----7=====----------|----3--5-----------|
A|----8=====----------|----8=====0---------|-------------------|
E|-0-----6/7----------|-0-----6------------|-0-----------------|

E|-5-------0-3-5-8-6--|-5h6p5-------5-6-----------------|
B|----3--2------------|-------8-6h8-----5h6p5-4-5h6-8-5-|
G|----2--3------------|---------------------------------|
D|----3--5------------|-------------7-------------------|
A|--------------------|-----------------4-----------0---|
E|-0------------------|-0-------------------------------|

E|-----------------------|-5------0-3-5-8-6-|-5------0-3-5-8-6-|
B|-6h8p6-5---5-----2-----|---3--2-----------|---3--2-----------|
G|---------7---3=====3-2-|---2--3-----------|---2--3-----------|
D|-------------5-2-------|---3--5-----------|---3--5-----------|
A|-------------0-------0-|------------------|------------------|
E|-0---------------------|-0----------------|-0----------------|

E|-5=======3-------1-|----------5----|-8======-5-8-10-12-8-|
B|-----------6/4-2---|-1-----1--6-------|-------6-------------|
G|----5--3-----------|----2-------------|----9----------------|
D|----3--3-----------|----3-------------|----8--7-------------|
A|----3--4-----------|------------------|-8-------------------|
E|-3-----------------|-3----------------|---------------------|

E|---8-9----------------|-5-----------------5-8p6-|
B|-11---11-6-8----6--8--|-------------6-5-6-------|
G|---------6---5--------|-----0-2-5---------------|
D|---------8---7--------|-----------8-7-----------|
A|-8-----------8--------|---4---------------------|
E|----------------------|-2-----------0-----------|

E|-5-----------------5-8p6-|-5-6-5-3-1-3-5--------|
B|-------------6-5-6-------|---------2-------6----|
G|-----0-2-5---------------|-5-------3---5--------|
D|-----------8-------------|-3-----------3--------|
A|---4---------------------|----------------------|
E|-2-----------0-----------|----------------------|

E|-0-----------0-1-0---0-6-|---------6-10-9-----0-----|
B|-3-----------3-----4-----|-2p3-5-8-------11-----2---|
G|-0h2-0---0-2-3-------0---|-0---------------12-----3-|
D|-------4-----------------|--------------------------|
A|-------------------------|-0------------------------|
E|-------------------------|--------------------------|

E|-5-------0-3-5-8-6--|-5-------0-3-5-8-6--|
B|----3--2------------|----3--2------------|
G|----2--3------------|----2--3------------|
D|----3--5------------|----3--5------------|
A|--------------------|--------------------|
E|-0------------------|-0------------------|

E|-5h6p5-------5h6-----------------|-----------------------|
B|-------8-6h8-----5h6p5-4-5h6-8-5-|6h8p6-5---5-----2------|
G|---------------------------------|--------7---3=====3-2--|
D|-------------7-------------------|------------5-2--------|
A|-----------------4-----------0---|------------0-------0--|
E|-0-------------------------------|0----------------------|

E|10======---6-10-13-11--|10---------------------|
B|---10----8-------------|----7---8--------------|
G|-------0---------------|----5---7-----0--------|
D|---10------------------|------0-----0---7-10p8-|
A|----9------------------|-0---------------------|
E|-0---------------------|----------8------------|

E|------------------|---------------------|-1--1--0-----------|
B|------3-----------|----5--6-----------3-|-3--3--1-------1---|
G|---6--2-----------|----3------------2---|-3-------------1h2-|
D|7--8--0-----------|-------------0-3-----|-3--3--------3-----|
A|------------0-3p1-|-0--4--5---4---------|-1-------2h3-------|
E|---5--3-2-3-------|-------0-------------|-------3-----------|

E|------------1--6-|---------8-6---6-13p11-----|---------------|
B|------------3--6-|-----8h9-----8--------13-11|-8-6-----------|
G|3---0-2-5p3-2--7-|---8-----------------------|-----8/5-3-0-3-|
D|--0------------6-|-8-------------------------|---------------|
A|------------0----|-6-------------------------|---------------|
E|5----------------|---------------------------|---------------|

E|-----------------5-6-9h12-|-9-------------|
B|-------------5h8----------|--11-----------|
G|-----0-2-3/6-6------------|----12-9-------|
D|---2---------5------------|--------11-8-7-|
A|-4------------------------|---------------|
E|-------------7------------|---------------|

E|-2---3---5---7---9---10--|-9-7-9---5---7-------|
B|-3-3---3---7---7---7---7-|---7---7---7---7-7-7-|
G|-2-2---2---7---7---7---7-|---7---7---7---7-7-7-|
D|-0-----------------------|---------------------|
A|-0-----------------------|---------------------|
E|-0-----------------------|---------------------|

E|-2---3---5---7---9---10--|-9-7-9---5-----------|
B|-3-3---3---7---7---7---7-|---7---7---7-7-------|
G|-2-2---2---7---7---7---7-|---7---7---7---7-7-7-|
D|-0-----------------------|---------------7-7-7-|
A|-0-----------------------|---------------------|
E|-0-----------------------|---------------------|

E|-----5---7-----------7---|-----12--10----------------|
B|-5-----------8-7-5-----8-|-10----------12p10-7--10---|
G|---6---6---6---6---6---6-|---11--11--11--------7--11-|
D|---5---5---5---5---5-----|---12--12--12-----------12-|
A|-0-----------------------|--0------------------------|
E|-0-----------------------|--0------------------------|

E|-----14--12------------0----|-----------0-----------|
B|-12----------14p12-10-------|-12h14-10------8-------|
G|---12--12--12--------12--12-|---------12--6---6-6-6-|
D|---11--11--11--------11--11-|---------11--7---7-7-7-|
A|--0-------------------------|-----------------------|
E|--0-------------------------|-----------------------|

E|-------------------------|-----------------------|
B|---3---3---7---7---7---7-|----7----7---7---7-7-7-|
G|---2---2---7---7---7-7---|----7----7---7---7-7-7-|
D|-4---5---7---9--11-------|-11-9-11---7---9-------|
A|-0-----------------------|-----------------------|
E|-0-----------------------|-----------------------|

E|---3---3---7---7---7---7-|---7---7---7---------|
B|---3---3---8---8---8-8-8-|-7-8---8---8---8-8-8-|
G|-4---5---7---9--11-------|---9-11--7-----7-7-7-|
D|-5-----------------------|-------------9-------|
A|-------------------------|------------10-------|
E|-------------------------|---------------------|

E|-6---6--13-11------6---|-5---5--12-10------5---|
B|--10---6-----11-11---4-|---9---5-----10-10---3-|
G|---7---7------8--8---3-|---9---6------7--7---2-|
D|-6---------------------|-5---------------------|
A|-----------10----------|------------9----------|
E|-----------------------|-----------------------|

E|-----0---2-------7-10-12-14-|-15------14-10-----------------|
B|-3-----3---3-8-10-----------|-0-----------7-----------------|
G|---4---4---4----------------|-0-------12--7-----------------|
D|---4------------------------|-12------11--------------------|
A|-2--------------------------|-0-0---0--------9-7h9p7-5--|
E|----------------------------|-------------0--6/7------------|

E|-----3---3---3-------3---3-|---3-------------5--|
B|-----2---2---2-------2---2-|---2-0-5p2-0-----8--|
G|-------2---4-----------4---|-2-----------6------|
D|---2-----------5p4-2-------|---------------7-7--|
A|-0-------------------------|--------------------|
E|---------------------------|--------------------|

E|-13--12-13-12-12---------|--------------------------|
B|---10-----------11-15-13-|-11--10-11-10--10---8-6---|
G|----------------10-------|---------9----7---7-6---7-|
D|-12--------10--8---------|---11---------7---8-------|
A|----------------------12-|-10---------8---7-----5---|
E|-------------------------|--------------------------|

E|-------------------|-0---0--------------------0-0-|
B|---3---3---3-------|-3---3------------------------|
G|---3---3-0-3-5p3-2-|---0-----------5p3/9------7-7-|
D|-2---3-------------|-------------7-------10-8-----|
A|-------------------|-------7h8-10-----------------|
E|-------------------|------------------------------|

E|--0-0---0---0-0---0-|--12--10---7---3---2---1--|
B|--2-2-------2-2-----|-----------8---3---2---2--|
G|--2-2-------2-2-----|--12--11---7---4---0---0--|
D|--------0---------0-|--------------------------|
A|0-----1---0-----1---|-0---0---0---0---0---0----|
E|----2---------2-----|--------------------------|

E|-2---3---5---7---9--10---|-9-7-9---5---7-------|
B|-3-3---3---7---7---7---7-|---7---7---7---7-7-7-|
G|-2-2---2---7---7---7---7-|---7---7---7---7-7-7-|
D|-0-----------------------|---------------------|
A|-0-----------------------|---------------------|
E|-0-----------------------|---------------------|

E|-2---3---5---7---9---10--|-9-7-9---5-----------|
B|-3-3---3---7---7---7---7-|---7---7---7-7-------|
G|-2-2---2---7---7---7---7-|---7---7---7---7-7-7-|
D|-0-----------------------|---------------7-7-7-|
A|-0-----------------------|---------------------|
E|-0-----------------------|---------------------|

E|----5---7-----------7---|----12--10----------------|
B|5-----------8-7-5-----8-|10----------12p10-7--10---|
G|--6---6---6---6---6---6-|--11--11--11--------7--11-|
D|--5---5---5---5---5-----|--12--12--12-----------12-|
A|0-----------------------|-0------------------------|
E|0-----------------------|-0------------------------|

----14--12------------0----|-----------0-----------|
12----------14p12-10-------|-12h14-10------8-------|
--12--12--12--------12--12-|---------12--6---6-6-6-|
--11--11--11--------11--11-|---------11--7---7-7-7-|
-0-------------------------|-----------------------|
-0-------------------------|-----------------------|

E|-------------------------|-----------------------|
B|---3---3---7---7---7---7-|----7----7---7---7-7-7-|
G|---2---2---7---7---7-7---|----7----7---7---7-7-7-|
D|-4---5---7---9--11-------|-11-9-11---7---9-------|
A|-0-----------------------|-----------------------|
E|-0-----------------------|-----------------------|

E|---3---3---7---7---7---7-|---7---7---7---------|
B|---3---3---8---8---8-8-8-|-7-8---8---8---8-8-8-|
G|-4---5---7---9--11-------|---9-11--7-----7-7-7-|
D|-5-----------------------|-------------9-------|
A|-------------------------|------------10-------|
E|-------------------------|---------------------|

E|-6---6--13-11-6-6-6---|-5---5--12-10----------|
B|-6-10--6--------------|-5-9---5------10----10-|
G|-7-----7------8-8---8-|-6-----6----------10---|
D|-6------------------8-|-5--------------0------|
A|-----------10---------|------------8----------|
E|----------------------|-----------------------|

E|-0-----0---6---------0---|-------------------0---|
B|---3-4---3---6-----------|-------8---6-----------|
G|---3-----3---------2-6p3-|-------7-3-------------|
D|-------------5-4-5-------|-------8---------------|
A|-------------------------|-7-6-7-----------0-3p1-|
E|-5-----------------------|-----------5-4-5-------|

E|----------------------|-----------------|
B|3p2-3-------2p1-2--------|-----ПОВТОРИТЬ-С-|
G|2-----------0------------|-------1-ПО-33---|
D|3--------2---------|-----------------|
A|0-----------0------------|-----------------|
E|------0------------------|-----------------|

E|------------------5--8--6-|------------0--3--5--8--6-|
B|------------5--8----------|--------------------------|
G|---3--2--6----------------|---3--2--6----------------|
D|---3-----5----------------|---3-----5----------------|
A|------0--7-----------0----|------0--7-----------0----|
E|-0------------------------|-0------------------------|

E|5-------------------10-12-|-13-17-13-12-10---------------|
B|6-------------5-6-10------|---------------10-6-5---------|
G|------------7-------------|----------------------7-------|
D|----------7---------------|------------------------7-----|
A|--0-5-7-8-----------------|--------------------------8-7-|
E|0-------------------------|------------------------------|

E|-----------10=======-|
B|3=======---10=======-|
G|-----------10=======-|
D|3=======---0========-|
A|5=======---0========-|
E|-----------0========-|
Добавлено: 14.12.2013
Другие материалы по этой песне:
  • Аккорды и текст

Страница создана 25.10.2013
http://primanota.ru/isaac-albeniz/mallerka-barkarolla-chords.htm
Привет, Гость.
Предлагаем пройти революционный курс по гитаре.
Подарок от PrimaNota.Ru, забирай!