PrimaNota.ru - самый крупный в мире бесплатный архив песенных текстов, аккордов, табулатур и нот


Исаак Альбенис - Испанская сюита - №5 Астурия - аккорды и текст, видео

Регистрация Запомнить меня
Войти через:  Facebook Google Twitter Vk Yandex Mail.ru

Исаак Альбенис - Испанская сюита - №5 Астурия - аккорды и текст, видео

Печатать
Просмотров: 326
Уроки эстрадного вокала в Санкт-Петербурге
Испанская сюита - №5 Астурия
Исаак Альбенис
p - пулл
h - хаммер
s - слайд
arm,  - искусственный флажолет
==== - тянуть

E|----------------------------|----------------------------|
B|----0---0----0---0---0----0-|---0---0----0---0---0----0--|
G|----------------------------|----------------------------|
D|------9===10===7===9===-----|-----9===10===7===9===------|
A|--7===-----------------10===|-7===-----------------10===-|
E|----------------------------|----------------------------|

E|----------------------------|----------------------------|
B|----0---0----0---0---0----0-|---0---0----0---0---0----0--|
G|----------------------------|----------------------------|
D|------9===10===7===9===-----|-7===---------7===----------|
A|--7===-----------------10===|-----9===10===----9===10===-|
E|----------------------------|----------------------------|

E|----------------------------|----------------------------|
B|----0---0----0---0---0----0-|---0---0----0---0---0----0--|
G|----------------------------|----------------------------|
D|------9===10===7===9===-----|-----9===10===7===9===------|
A|--7===-----------------10===|-7===-----------------10===-|
E|----------------------------|----------------------------|

E|----------------------------|----------------------------|
B|----0---0----0---0---0----0-|---0---0----0---0----0---0--|
G|----------------------------|----------------------------|
D|------9===10===7===9===-----|-7===-----------------------|
A|--7===-----------------10===|-----9===10===7===----------|
E|----------------------------|------------------10===8===-|

E|---------------------------|---------------------------|
B|----0---0----0---0---0---0-|---0---0----0---0---0---0--|
G|---------------------------|---------------------------|
D|------9===10===7===9===----|-----9===10===7===9===-----|
A|-----------------------9===|----------------------9===-|
E|--7===---------------------|-7===----------------------|

E|----------------------------|----------------------------|
B|----0---0---0---0----0----0-|---0----0---0---0----0---0--|
G|----------------------------|----------------------------|
D|----------7===9===10===12===|-9===10===7===9===----------|
A|------9===------------------|------------------10===9===-|
E|--7===----------------------|----------------------------|

E|---------------------------|---------------------------|
B|----0---0----0---0---0---0-|---0---0----0---0---0---0--|
G|---------------------------|---------------------------|
D|------9===10===7===9===----|-----9===10===7===9===-----|
A|-----------------------9===|----------------------9===-|
E|--7===---------------------|-7===----------------------|

E|----------------------------|--------------------------|
B|----0---0---0----0----0---0-|----0---0---0---0---0---0-|
G|----------------------------|--------------------------|
D|------7===9===10===12===9===|-10===7===9===5===7===4---|
A|----------------------------|--------------------------|
E|--7===----------------------|--------------------------|

E|------7-----7-----7-----7-----7-----7-|
B|----0-----0-----0-----0-----0-----0---|
G|--------4=====5=====------4=====------|
D|--------------------7=====------5=====|
A|--7-----------------------------------|
E|--0===================================|

E|-----7-----7-----7-----7-----7-----7--|
B|---0-----0-----0-----0-----0-----0----|
G|-------4=====5=====------4=====-------|
D|-------------------7=====------5=====-|
A|-7------------------------------------|
E|-0====================================|

E|------7-----7-----7-----7-----7-----7-|
B|----0-----0-----0-----0-----0-----0---|
G|--------4=====5=====------4=====------|
D|--------------------7=====------5=====|
A|--7-----------------------------------|
E|--0===================================|

E|-----7-----7-----7-----7-----7-----7--|
B|---0-----0-----0-----0-----0-----0----|
G|--------------------------------------|
D|-7=====4=====5=====7=====4=====5=====-|
A|--------------------------------------|
E|--------------------------------------|

E|------7-----7-----7-----7-----7-----7-|
B|----0-----0-----0-----0-----0-----0---|
G|--------4=====5=====------4=====------|
D|--------------------7=====------5=====|
A|--7-----------------------------------|
E|--0===================================|

E|-----7-----7-----7-----7-----7-----7--|
B|---0-----0-----0-----0-----0-----0----|
G|-------4=====5=====------4=====-------|
D|-------------------7=====------5=====-|
A|-7------------------------------------|
E|-0====================================|

E|------7-----7-----7-----7-----7-----7-|
B|----0-----0-----0-----0-----0-----0---|
G|--------4=====5=====------4=====------|
D|--------------------7=====------5=====|
A|--7-----------------------------------|
E|--0===================================|

E|-----7-----7-----7-----7-----7-----7--|
B|---0-----0-----0-----0-----0-----0----|
G|-------------0=====-------------------|
D|-7=====4=====------------0=====-------|
A|-------------------7=====-------------|
E|-------------------------------8=====-|

E|--7---------------------------------|
B|--7----0-0----0-0---0-0---0-0---0-0-|
G|--8---------------------------------|
D|--9--9=====10=====7=====9=====------|
A|--9---------------------------9=====|
E|--7---------------------------------|

E|-7----------------------------------|
B|-7----0-0----0-0---0-0---0-0---0-0--|
G|-8----------------------------------|
D|-9--9=====10=====7=====9=====-------|
A|-9---------------------------9=====-|
E|-7----------------------------------|

E|--7----------------------------------|
B|--7----0-0---0-0---0-0----0-0----0-0-|
G|--8----------------------------------|
D|--9--------7=====9=====10=====12=====|
A|--9--9=====--------------------------|
E|--7----------------------------------|

E|----------------------------------------|
B|---0-0----0-0---0-0---0-0----0-0---0-0--|
G|----------------------------------------|
D|-9=====10=====7=====9=====--------------|
A|--------------------------10=====9=====-|
E|----------------------------------------|

E|--7---------------------------------|
B|--7----0-0----0-0---0-0---0-0---0-0-|
G|--8---------------------------------|
D|--9--9=====10=====7=====9=====------|
A|--9---------------------------9=====|
E|--7---------------------------------|

E|-7----------------------------------|
B|-7----0-0----0-0---0-0---0-0---0-0--|
G|-8----------------------------------|
D|-9--9=====10=====7=====9=====-------|
A|-9---------------------------9=====-|
E|-7----------------------------------|

E|--7----------------------------------|
B|--7----0-0---0-0---0-0----0-0----0-0-|
G|--8----------------------------------|
D|--9--------7=====9=====10=====12=====|
A|--9--9=====--------------------------|
E|--7----------------------------------|

E|-----------------------------------------|
B|---0-0----0-0----0-0---0-0----0-0---0-0--|
G|-----------------------------------------|
D|-9=====10=====-------9=====-------9=====-|
A|--------------12=====------10=====-------|
E|-----------------------------------------|

E|--12-----------------------------------|
B|---0----0-0----0-0----0-0---0-0----0-0-|
G|---0-----------------------------------|
D|---9--9=====10=====-------9=====-------|
A|--10---------------12=====------10=====|
E|---0-----------------------------------|

E|-12------------------------------------|
B|--0----0-0----0-0----0-0---0-0----0-0--|
G|--0------------------------------------|
D|--9--9=====10=====-------9=====--------|
A|-10---------------12=====------10=====-|
E|--0------------------------------------|

E|--12-----------------------------------|
B|---0----0-0----0-0----0-0---0-0----0-0-|
G|---0-----------------------------------|
D|---9--9=====10=====-------9=====-------|
A|--10---------------12=====------10=====|
E|---0-----------------------------------|

E|------------------------------------------|
B|----0-0---0-0----0-0----0-0---0-0----0-0--|
G|------------------------------------------|
D|------------------------------------------|
A|-12=====9=====10=====12=====9=====10=====-|
E|------------------------------------------|

E|--12-------8------8-----8------8------8-|
B|---8------------------------------------|
G|---9-----9------9-----9------9------9---|
D|---8--10=====12=====9=====10=====-------|
A|--10-----------------------------10=====|
E|---8------------------------------------|

E|-12-------8------8-----8------8------8--|
B|--8-------------------------------------|
G|--9-----9------9-----9------9------9----|
D|--8--10=====12=====9=====10=====--------|
A|-10-----------------------------10=====-|
E|--8-------------------------------------|

E|--12-------8------8-----8------8------8-|
B|---8------------------------------------|
G|---9-----9------9-----9------9------9---|
D|---8--10=====12=====9=====10=====-------|
A|--10-----------------------------10=====|
E|---8------------------------------------|

E|-----8-----8------8-----8-----8-----8--|
B|---7-----7------7-----7-----7-----7----|
G|---------------------------------------|
D|-7=====-------------7=====-------------|
A|-------9=====10=====------7=====9=====-|
E|---------------------------------------|

E|--7------7------7-----7-----7-----7-|
B|--7---------------------------------|
G|--8----8------8-----8-----8-----8---|
D|--9--9=====10=====8=====9=====------|
A|--9---------------------------9=====|
E|--7---------------------------------|

E|--8-------8------8-----8------8------8--|
B|--8-------------------------------------|
G|--9-----9------9-----9------9------9----|
D|--8--10=====12=====9=====10=====--------|
A|-10-----------------------------10=====-|
E|--8-------------------------------------|

E|--7------7------7-----7-----7-----7-|
B|--7---------------------------------|
G|--8----8------8-----8-----8-----8---|
D|--9--9=====10=====8=====9=====------|
A|--9---------------------------9=====|
E|--7---------------------------------|

E|--8-------8------8-----8------8------8--|
B|--8-------------------------------------|
G|--9-----9------9-----9------9------9----|
D|--8--10=====12=====9=====10=====--------|
A|-10-----------------------------10=====-|
E|--8-------------------------------------|

E|--7------7-----7-----7-----7-----7-|
B|--7----0-----0-----0-----0-----0---|
G|--8--4=====5=====------4=====------|
D|--9--------------7=====------5=====|
A|--9--------------------------------|
E|--7--------------------------------|

E|-----7-----7-----7-----7-----7-----7--|
B|---0-----0-----0-----0-----0-----0----|
G|--------------------------------------|
D|-7=====4=====5=====7=====4=====5=====-|
A|--------------------------------------|
E|--------------------------------------|

E|------7-----7-----7-----7-----7-----7-|
B|----0-----0-----0-----0-----0-----0---|
G|--------------------------------------|
D|--------4=====5=====7=====4=====5=====|
A|--7=====------------------------------|
E|--------------------------------------|

E|-----7-----7-----7-----7-----7-----7--|
B|---0-----0-----0-----0-----0-----0----|
G|-------------0=====-------------------|
D|-------4=====------------0=====-------|
A|-7=====------------7=====-------------|
E|-------------------------------8=====-|

E|----------------------------|----------------------------|
B|----0---0----0---0---0----0-|---0---0----0---0---0----0--|
G|----------------------------|----------------------------|
D|------9===10===7===9===-----|-7===---------7===----------|
A|-----------------------10===|-----9===10===----9===10===-|
E|--7===----------------------|----------------------------|

E|----------------------------|----------------------------|
B|----0---0----0---0---0----0-|---0---0----0---0----0---0--|
G|----------------------------|----------------------------|
D|---------------7===---------|----------------------------|
A|--7===9===10===----9===10===|-7===9===10===7===----------|
E|----------------------------|------------------10===8===-|

E|---------------------------------------|
B|------7-----7-----7------7-----7-----7-|
G|----8-----8-----8------8-----8-----8---|
D|--------------9=====10=====8=====9=====|
A|--------9=====-------------------------|
E|--7====--------------------------------|

E|------------------------------------------|
B|-----8------8------8------8-----8------8--|
G|---9------9------9------9-----9------9----|
D|--------------10=====12=====9=====10=====-|
A|-------10=====----------------------------|
E|-8=====-----------------------------------|

E|---------------------------------------|
B|------7-----7-----7------7-----7-----7-|
G|----8-----8-----8------8-----8-----8---|
D|--------------9=====10=====8=====9=====|
A|--------9=====-------------------------|
E|--7=====-------------------------------|

E|------------------------------------------|
B|-----8------8------8------8-----8------8--|
G|---9------9------9------9-----9------9----|
D|--------------10=====12=====9=====10=====-|
A|-------10=====----------------------------|
E|-8=====-----------------------------------|

E|----------------------------------------|
B|------7-----7-----7------7-----7------7-|
G|----8-----8-----8------8-----8------8---|
D|--------------9=====10=====8=====10=====|
A|--------9=====--------------------------|
E|--7=====--------------------------------|

E|----------------------------------------|
B|-----7------7-----7------7-----7-----7--|
G|---8------8-----8------8-----8-----8----|
D|-9=====10=====8=====10=====9=====-------|
A|---------------------------------9=====-|
E|----------------------------------------|

E|--------------------|-----------------11--14-|---|-------|
B|--------------------|-12----------12---------|-------|-------|
G|-------------8--11--|---------11-------------|-------|-4====-|
D|----------9---------|-----13-----------------|-------|-4====-|
A|----6--9------------|------------------------|-------|-6====-|
E|-7------------------|------------------------|-------|-7====-|

E|--7--------5--7--|-10-----7p8h7--5--|-7--|-2================-|
B|-----------------|------------------|----|-4-------------|
G|-----------------|------------------|----|-4================-|
D|--9--------7--9--|-12-----9------7--|-9--|-4================-|
A|-----------------|------------------|----|-2================-|
E|-----------------|------------------|----|-------------------|

E|--7--------5--7--|-10-----7p8h7--5--|-7--|-------------------|
B|-----------------|------------------|----|-3================-|
G|-----------------|------------------|----|-4-------------|
D|--9--------7--9--|-12-----9------7--|-9--|-5================-|
A|-----------------|------------------|----|-5================-|
E|-----------------|------------------|----|-3================-|

E|--7-------6=====|====3p5h3--2--------|---|-2================-|
B|----------------|--------------5-s8--|-7-|-4-------------|
G|----------------|--------------------|---|-4================-|
D|--9-------8=====|====----5--4--2-s5--|-4-|-4================-|
A|----------------|--------------------|---|-2================-|
E|----------------|--------------------|---|-------------------|

E|--7---------8--7--|-6--2--3p5h3--2-------|---------------|---|
B|------------------|-----------------5-s8-|-7--------5----|-4-|
G|------------------|----------------------|----------3----|-4-|
D|--9--------10--9--|-8--4------5--4--2-s5-|-4--------4----|-4-|
A|------------------|----------------------|----------3----|-2-|
E|------------------|----------------------|---------------|---|

E|---------|-----------------8-|---------------|---------------|
B|------0--|----4p5h4-----4----|--------0------|--------0----0-|
G|------7--|--------5--7--5----|--------7------|---------------|
D|-5=======|-4=================|-4s5===========|--------8----7-|
A|---------|-------------------|---------------|-6s9=========6-|
E|---------|-------------------|---------------|---------------|

E|-------------|-------------|----------------|------0---------|
B|-----------0-|-----------0-|-----------0----|----------------|
G|------0------|-------------|----------------|------3---------|
D|-------------|------4------|------4---------|----------------|
A|-7===========|-5===========|-3==============|----------------|
E|-------------|-------------|----------------|-2=============-|

E|----------|-------0===========|---------|-------0===========-|
B|-----4====|-------------------|----4====|--------------------|
G|-----4====|-------------------|----4====|--------------------|
D|--------4-|-------4===========|-------4-|-------4===========-|
A|-2========|-0--2--3--5p3-2--0-|-2=======|-0--2--3--5p3-2--0--|
E|----------|-------------------|---------|--------------------|

E|---------|----------------------|--------------|-------------|
B|----4====|----------------------|--------------|-------------|
G|----4====|----------------------|--------------|-------------|
D|-------4-|-7--9--10--12p10-9--7-|-9--8-4-7-6-2-|-5-4-1-3-2---|
A|-2=======|----------------------|--------------|-----------3-|
E|---------|----------------------|--------------|-------------|

E|---------------|-------5======-----|-------0-|-----5=====----|
B|-------------0-|-------6======-----|-------9-|-----6=====----|
G|-------------8-|-------------------|---------|---------------|
D|---------------|-------------------|-------9-|---------------|
A|--------9======|-------5--7p5------|----7====|-----5-7p5-----|
E|-1s7===========|-7--8---------8--7-|-0=======|-7-8-------8-7-|

E|-------0-|-----0----------|-----------------|-0--------------|
B|-------9-|---4---0h1----0-|----0----0-----0-|---6--8---------|
G|---------|-5---0=====2----|-0----------0----|-0====0-7h9-5-7-|
D|-------9-|-2===------4====|-2====s4---------|------0=====4==-|
A|----7====|-0===-----------|-------6===s7====|------------0==-|
E|-0=======|----------------|-----------------|-8===s7=====----|

E|---------------|-------5--8--6p8h6-5-|-8-5-------------------|
B|---3----3----3-|-s6-8----------------|-----8p10h8--7--10-s13-|
G|-4---s3---s4---|---------------------|-----------------------|
D|-0====0====0===|---------------------|-----------------------|
A|---------------|---------------------|-----------------------|
E|-3===s2===s3===|---------------------|-----------------------|

E|------------------|---------|---------------------|----------|
B|------5--7p5------|-------0-|--------7============|-------0--|
G|-5-7---------7--5-|-------8-|---------------------|-------8--|
D|-4====-------5====|---------|--------8============|----------|
A|-0===========7====|----9====|--------7--9p7-------|----9====-|
E|-------------6====|-7=======|-8--10---------10--8-|-7=======-|

E|-----------------|------|-----7-----7-----7-----7-----7-----7|
B|------7==========|-----0|---8-----8-----8-----8-----8-----8--|
G|-----------------|-----8|-------------------7=====-----------|
D|------8==========|------|-------8=====9=====------8=====9====|
A|------7-9p7------|---9==|10=====-----------------------------|
E|-8-10-------10-8-|-7====|------------------------------------|

E|---------------------------------------|
B|-------7-----7-----7-----7-----7-----7-|
G|-----7-----7-----7-----7-----7-----7---|
D|---------------------7=====------------|
A|---------8=====9=====------8=====9=====|
E|--10=====------------------------------|

E|-----0-----0------0-----0------0-----0--|
B|----------------------------------------|
G|----------------------------------------|
D|---8-----8------8-----8------8-----8----|
A|-------9=====10=====7=====--------------|
E|-8=====-------------------10=====8=====-|

E|--7--------5--7--|-10----7h8p7--5--|-7---|-2================-|
B|-----------------|-----------------|-----|-4-------------|
G|-----------------|-----------------|-----|-4================-|
D|--9--------7--9--|-12--------9--7--|-9---|-4================-|
A|-----------------|-----------------|-----|-2================-|
E|--7--------------|-----------------|-----|-------------------|

E|--7--5--7--|-10--------7h8p7--5--|-7-----|------|
B|-----------|---------------------|-----5-|-4----|
G|-----------|---------------------|-----3-|-4---o| Da Capo
D|--9--7--9--|-12--------9------7--|-9---4-|-4---o| al @ Coda
A|-----------|---------------------|-----3-|-2----|
E|-----------|---------------------|-------|------|

     E|---------|-0=============|----------|---------------|---|
     B|----0----|---------------|-0--------|---------------|---|
Coda G|---------|-0--------2----|-0--------|-5=============|-0-|
     D|---------|-2=============|-0--------|-2--------4----|-5-|
     A|---------|-3=============|----------|-0=============|---|
     E|---------|---------------|-3--------|---------------|-0-|

E|--2-------------|-1--------0----|-0--------|-----------------|
B|--1--------2----|-1=============|----------|----------0------|
G|--2--------3----|-2=============|-5--------|-8p9h8----0------|
D|----------------|---------------|-7--------|---------------7-|
A|----------------|---------------|----------|---------------9-|
E|----------------|---------------|-7--------|-----------------|

E|----------------------------|----------------------------|
B|----0---0----0---0---0----0-|---0---0----0---0---0----0--|
G|----------------------------|----------------------------|
D|------9===10===7===9===-----|-----9===10===7===9===------|
A|--7===-----------------10===|-7===-----------------10===-|
E|----------------------------|----------------------------|

E|-----------------------------------|
B|-----------------------------------|
G|---------0-----0-----0-----0-----0-|
D|-----------------------------------|
A|--7----7-----7-----7-----7-----7---|
E|-----8=====6=====8=====6=====8=====|

E|--------------------------------------|
B|--------------------------------------|
G|-----0-----0-----0-----0-----0-----0--|
D|--------------------------------------|
A|---7-----7-----7-----7-----7-----7----|
E|-6=====8=====6=====8=====6=====8=====-|

E|--------------|-0-|
B|--------------|-5-|
G|--------------|---|
D|------------------|-2-|
A|------------------|---|
E|--------------|-0-|
Добавлено: 29.11.2013
Другие материалы по этой песне:
  • Аккорды и текст

Страница создана 30.09.2013
http://primanota.ru/isaac-albeniz/ispanskaya-syuita-n5-asturiya-chords.htm
Привет, Гость.
Предлагаем пройти революционный курс по гитаре.
Подарок от PrimaNota.Ru, забирай!