PrimaNota.ru - самый крупный в мире бесплатный архив песенных текстов, аккордов, табулатур и нот


Исаак Альбенис - Пелегария (андантэ) - аккорды и текст, видео

Регистрация Запомнить меня
Войти через:  Facebook Google Twitter Vk Yandex Mail.ru

Исаак Альбенис - Пелегария (андантэ) - аккорды и текст, видео

Печатать
Просмотров: 141
Пелегария (андантэ)
Исаак Альбенис
Строй: EADGBE

            1                2                  3
E||-------------------|------------------|---------------------|
B||-------------0-----|------------------|---------------------|
G||-------0--2--------|----0-------------|---------------------|
D||----2--------------|-------2----------|---0--3--2--0---3--2-|
A||-3-----------------|----------3-------|---------------------|
E||-------------------|------------------|---------------------|

            4                          5
E|---3--8--------10--7------5--|-----------0----|
B|1--0--8--6--5--9---6------5--|--------0-----3-|
G|0---------------------9---5--|--0--2----------|
D|2--0--7------------6---------|----------------|
A|3--------------8------11--3--|----------------|
E|------8--------8-------------|----------------|

           6                                 7
E|---------------------------|----3--4-----9---------------3-|
B|0---------0--3--0--0-----0-|----3--4--9------------1--0===-|
G|---0---2--------------2----|----4--5--6-----6--------------|
D|---------------------------|----5--4-----------10--3======-|
A|---------------------------|----------8------------5======-|
E|---------------------------|-----------------------3======-|

       8                   9
E|8--------------7--|-13-----------------|
B|------5-----8-----|----------------10--|
G|---------5--------|--------10----------|
D|---9--------------|------------10------|
A|------------------|----12--------------|
E|8-----------------|-8------------------|

              10                           11
E|---------13--------------------|-12-------------------|
B|-12--13------------------------|----------------------|
G|----------------10------13--10-|--------9------12-----|
D|-------------------------------|-----------10---------|
A|------------11------14---------|----10-------------10-|
E|---------8---------------------|-8--------------------|

           12                    13
E|--------------------|-----10--12--15-----|
B|---------10--12--13-|--------------------|
G|-12-----------------|-----------------14-|
D|---------10---------|-------------0------|
A|-----10----------0--|-----12-------------|
E|-12-----------------|-12-----------------|

           14             15                  16
E|8--------13--8---|-8-----7-----5------|-8----------------|
B|---10----10------|-6-----------6--8---|-6-----------5----|
G|-------------10--|----------7--5--10--|-------------5----|
D|-------------7---|----4--5--------9---|-------7--5-----5-|
A|-----------------|--------------------|----9-------------|
E|-----------------|-3------------------|-8----------------|

         17                    18
E|8---------------7--|-15--------------13---------|
B|------5------8-----|---------13----------12--13-|
G|---------5---------|-----14------14--14---------|
D|---5---------------|-0--------------------------|
A|7------------------|----------------------------|
E|-------------------|----------------------------|

          19                        20
E|-13--------------12--11-|12------------------|
B|-10---------------------|--------------------|
G|---------10------12--11-|12-----------9------|
D|-----10------10---------|------7---------10--|
A|-10---------------------|---9-----10---------|
E|------------------------|8-------------------|

            21                       22
E|-7-----------7----------|-7-----------8--7--10--8-|
B|-8-----8--5--8-----8--4-|------8--10--8--8--8---8-|
G|----4-----------4-------|---7--7--8---8--7--10--8-|
D|------------------------|------9--10--------------|
A|-7-----------6----------|-5-----------------------|
E|------------------------|-------------------------|

           23               24                   25
E|7-----------5------|-3----------------|-10------------13--12-|
B|7-----5-----7------|-0--------0-------|---------------10-----|
G|---6-----7--5------|-------------2--0-|-10----------------12-|
D|-------------------|-------0----------|--------7-------------|
A|5--------------5---|----4-------------|-----9-----10---------|
E|-------------------|-3----------------|-8--------------------|

        26                  27                     28
E|8------------------|-------------8--7---|-12-----------------|
B|5-----------5------|-9-----------5------|-9-----------10--13-|
G|---------------5---|-7-----5--------7---|----------7---------|
D|------7--5---------|--------------------|-------9-----10-----|
A|---9---------------|----7-----7---------|-0--7------------12-|
E|8------------------|-0------------------|--------------------|

       29                        30                    31
E|8------------10------|-----13-----------12--8--|-6--4--3----|
B|---------------------|-----12---------------9--|-8--6--6----|
G|10--------7----------|----------------------10-|-8--5--5--4-|
D|----6--7-----10-9--7-|-----------7------10-----|----3--5----|
A|-------------10------|-10-----9-----10------11-|-6----------|
E|10-------------------|-----8-------------------|----------3-|

        32                                            33
E|1-----------0-----------|------------------|-1--0-|
B|0-----------1-----------|-повторить-такты--|-0--1-|
G|------------------2--0--|-с 25 по 31-------|-1--0-|
D|---------0-----4--------|------------------|------|
A|3-----------3-----------|------------------|-3----|
E|---2--3-----------------|------------------|------|

        34                   35                     36
E|---3--8-----------|-10--7------8------7---|-7---5--7------7-|
B|1--0--8--6--5-----|-9---6------5--8-------|-7---------8-----|
G|0-----------------|--------9---5--7---7---|-8---------7---7-|
D|2--0--7-----5-----|-----6---------9-------|-10--------9---4-|
A|3-----------------|-8------10-----10------|-----------10----|
E|------8-----------|-8----------8----------|-----------------|

          37                  38
E|10--7---------------|-2--5-----0--2--3---|
B|8------8-----8------|-3-----3--------3---|
G|9---------9--7------|-2-----4--------4---|
D|-------------7--11--|-0-----4--------2---|
A|7-------------------|----3--2------------|
E|--------------------|--------------------|

          39                         40
E|-------3--2--0--2------7-|7---5--7------7----|
B|-0--2--------------8-----|7---------8--------|
G|-------2-----------7---7-|8---------7---7----|
D|-------0-----------9-----|10--------9---4----|
A|-0-----------------10----|----------10-------|
E|-------------------------|-------------------|

          41                      42
E|-10--7---------------|-2--5-----0--2--3-------|
B|-8------8-----8------|-3-----3--------3--0--2-|
G|-9---------9--7------|-2-----4--------4-------|
D|--------------7--11--|-0-----4--------2-------|
A|-7-------------------|----3--2-----------0----|
E|---------------------|------------------------|

         43                  44
E|2--5---5--5--5--10-|-4--8--13--10--8----|
B|3--6---6--5-----10-|-5--6--9-------5----|
G|2--7---7--5-----10-|-----------10-------|
D|0---------------9--|----7--12------7----|
A|-------------------|-------12-----------|
E|-------------------|--------------------|

           45                     46
E|-0-----0--7--5--------2-|---2--0--0--------0-|
B|-1--0-----5-----8--7--4-|4-----0--0--3--3----|
G|-2--0-----5-----8-----5-|---2--0-------------|
D|----------4-----7-----2-|------2--3----------|
A|------------------------|--------------------|
E|----------------7-------|---------4----------|

           47                     48
E|----8--7--7--8--7--|----5--7--3--3---3--4--3-|
B|-1--9-----------4--|-------7--5--4---4--5--5-|
G|-2--7--------------|----------4--3---3-----3-|
D|-2-----------------|-4--------2--------------|
A|-0--7-----------8--|-------6-----4---4--3--5-|
E|-------------------|-------------------------|

         49                    50                51
E|3--2--2------7--7---|-5--7---------8--8-|-7--5--7-------|
B|1--------8------7---|-------8---8--8--8-|-7--------8----|
G|2--------7---7--8---|-------7---9-------|-5--------0----|
D|0--------9------10--|-------9---9-------|----------9--5-|
A|---------10---------|-------10--7-----0-|-5-------------|
E|--------------------|--------------5----|---------------|

                                               52
E|-------------------|------------------|----3--8--------10-|
B|-Повторить-такты---|-Потом-повторить--|-1--0--8--6--5--9--|
G|-с-8-ого-по-32-ой--|--такты-с-25-ого--|-0-----------------|
D|-------------------|--по-31-и-33------|-2--0--7-----5-----|
A|-------------------|------------------|-3--------------8--|
E|-------------------|------------------|-------8--------8--|

         53                    54
E|7------8-----1-----|-0--8--|
B|6------5--1--1--0--|-1--8--|
G|---9---5--2--2-----|-0--9--|
D|6---------2--0-----|----10-|
A|---10-----0--------|-3-----|
E|-------8--------3--|-------|
Добавлено: 28.12.2013
Другие материалы по этой песне:
  • Аккорды и текст

Страница создана 28.12.2013
http://primanota.ru/isaac-albeniz/pelegariya-andante-chords.htm
Привет, Гость.
Предлагаем пройти революционный курс по гитаре.
Подарок от PrimaNota.Ru, забирай!