PrimaNota.ru - самый крупный в мире бесплатный архив песенных текстов, аккордов, табулатур и нот


Insomnium - The Swarm - таба, видео

Регистрация Запомнить меня
Войти через:  Facebook Google Twitter Vk Yandex Mail.ru

Insomnium - The Swarm - таба, видео

Печатать
Просмотров: 144
-----------------------------------------------------------------------------------------------------------
                                          The Swarm - INSOMNIUM
-----------------------------------------------------------------------------------------------------------

Guitar 3 progression per chord: down, down, up, down, down, down, up, down

  Guitar 1
e|-----0---2-------0---2-------2---2-------0---0-------0---2-------0---2-------0---0-------0---0---|
B|-3-----------3-----------3-----------3-----------3-----------3-----------3-----------3-----------|
G|---4---4---4---4---4---4---4---4---4---4---4---4---4---4---4---4---4---4---2---2---2---0---0---0-|
D|-------------------------------------------------------------------------------------------------|
A|-2-----------2-----------------------------------2-----------2-----------0-----------------------|
E|-------------------------3-----------3-----------------------------------------------3-----------|

  Guitar 2
e|-----------------------------2---2-------0---0-------------------------------0---0-------0---0---|
B|-0---2---3---0---2---3---0-----------0-----------0---2---3---0---2---3---0-----------0-----------|
G|-------------------------------------------------------------------------------------------------|
D|---4---4---4---4---4---4---4---4---4---4---4---4---4---4---4---4---4---4---2---2---2---0---0---0-|
A|-2-----------2-----------------------------------2-----------2-----------0-----------------------|
E|-------------------------3-----------3-----------------------------------------------3-----------|

  Guitar 1
e|-----0---2-------0---2-------2---2-------0---0---0-----------0-----------2-----------2-----------|
B|-3-----------3-----------3-----------3-------------0---0-------0---0-------2---2-------2---2-----|
G|---4---4---4---4---4---4---4---4---4---4---4---4-----0-----0-----0-----0-----2-----2-----2-----2-|
D|---------------------------------------------------------4-----------4-----------4-----------4---|
A|-2-----------2-----------------------------------------------------------------------------------|
E|-------------------------3-----------3-----------------------------------------------------------|

  Guitar 2
e|-----------------------------2---2-------0---0---0-----------0-----------2-----------2-----------|
B|-0---2---3---0---2---3---0-----------0-------------0---0-------0---0-------2---2-------2---2-----|
G|-----------------------------------------------------0-----0-----0-----0-----2-----2-----2-----2-|
D|---4---4---4---4---4---4---4---4---4---4---4---4---------4-----------4-----------4-----------4---|
A|-2-----------2-----------------------------------------------------------------------------------|
E|-------------------------3-----------3-----------------------------------------------------------|

  Guitar 1
e|-2---3---5---2---3---5---7---5---5-------0---0---2---3---5---2---3---5---0---3---3---2---0---0---|
B|-------------------------------------3-----------------------------------------------------------|
G|---4---4---4---4---4---4---------------0---0---0---4---4---4---4---4---4---4---4---4---4---4---4-|
D|---------------------------5---5---5-------------------------------------------------------------|
A|-2-----------2-----------------------------------2-----------2-----------------------------------|
E|-------------------------3-----------3-----------------------------------3-----------3-----------|

  Guitar 2
e|-----------------------------2---2-------0---0-------------------------------0---0-------0---0---|
B|-0---2---3---0---2---3---0-----------0-----------0---2---3---0---2---3---0-----------0-----------|
G|-------------------------------------------------------------------------------------------------|
D|---4---4---4---4---4---4---4---4---4---4---4---4---4---4---4---4---4---4---2---2---2---0---0---0-|
A|-2-----------2-----------------------------------2-----------2-----------0-----------------------|
E|-------------------------3-----------3-----------------------------------------------3-----------|

  Guitar 1
e|-2---3---5---2---3---5---7---5---5-------0---0---3-----------3-----------5-----------9--------------|
B|-------------------------------------3-------------5---5-------5---5-------7---7-------10---10------|
G|---4---4---4---4---4---4---------------0---0---0-----4-----4-----4-----4-----6-----6------9-------9-|
D|---------------------------5---5---5---------------------5-----------5-----------7-------------11---|
A|-2-----------2--------------------------------------------------------------------------------------|
E|-------------------------3-----------3--------------------------------------------------------------|

  Guitar 2
e|-----------------------------2---2-------0---0---3-----------3-----------5-----------9--------------|
B|-0---2---3---0---2---3---0-----------0-------------5---5-------5---5-------7---7-------10---10------|
G|-----------------------------------------------------4-----4-----4-----4-----6-----6------9-------9-|
D|---4---4---4---4---4---4---4---4---4---4---4---4---------5-----------5-----------7-------------11---|
A|-2-----------2--------------------------------------------------------------------------------------|
E|-------------------------3-----------3--------------------------------------------------------------|

  Guitar 1
e|----------------------------------------------------------------------------------------------|
B|-----------2-----------5-----------7-----------------------2-----------5-----------7-5--------|
G|---4-2-4-------7-6-7-------7-6-7-------9-7-9---6---4-2-4-------7-6-7-------7-6-7--------7-6-6-|
D|-4-------4---5-------5---4-------4---7-------7---4-------4---5-------5---4-------4------------|
A|----------------------------------------------------------------------------------------------|
E|----------------------------------------------------------------------------------------------|

  Guitar 3
e|-0-----------3-----------2-----------0-----------0-----------3-----------2-----------0--------|
B|-3-----------3-----------3-----------2-----------3-----------3-----------3-----------2--------|
G|-4-----------0-----------2-----------2-----------4-----------0-----------2-----------2--------|
D|-4-----------0-----------0-----------2-----------4-----------0-----------0-----------2--------|
A|-2-----------2-----------------------0-----------2-----------2-----------------------0--------|
E|-------------3-----------------------------------------------3--------------------------------|

  Guitar 1
e|-------------------------------------------------------------------------------------------------------|
B|-----------2-----------5-----------7-----------------------2-----------5---5-3-5---5---7-5-7-----------|
G|---4-2-4-------7-6-7-------7-6-7-------9-7-9---6---4-2-4-------7-6-7---------------------------6-7-6-4-|
D|-4-------4---5-------5---4-------4---7-------7---4-------4---5-------5---2-------2---4-------4---------|
A|-------------------------------------------------------------------------------------------------------|
E|-------------------------------------------------------------------------------------------------------|

  Guitar 2
e|---------------7-5-7---5-----------5-----------------------------7-5-7-------------7-------------------|
B|---7-5-7---7---------------7-5-7-------8-7-8-----7---7-5-7---7-----------5-8-7-8-----7--8-7------------|
G|-4-------4---7-------7---4-------4-------------8---4-------4---7-------7---------7----------6--7-6-4---|
D|-------------------------------------9-------9---------------------------------------------------------|
A|-------------------------------------------------------------------------------------------------------|
E|-------------------------------------------------------------------------------------------------------|

  Guitar 3
e|-0-----------3-----------2-----------0-----------0-----------3-----------0------------------0----------|
B|-3-----------3-----------3-----------2-----------3-----------3-----------5-----------7------2----------|
G|-4-----------0-----------2-----------2-----------4-----------0-----------4-----------6------2----------|
D|-4-----------0-----------0-----------2-----------4-----------0-----------2-----------4------2----------|
A|-2-----------2-----------------------0-----------2-----------2------------------------------0----------|
E|-------------3-----------------------------------------------3-----------------------------------------|

  Guitar 1
e|-----0---2-------0---2-------2---2-------0---0-------0---2-------0---2-------0---0-------0---0---|
B|-3-----------3-----------3-----------3-----------3-----------3-----------3-----------3-----------|
G|---4---4---4---4---4---4---4---4---4---4---4---4---4---4---4---4---4---4---2---2---2---0---0---0-|
D|-------------------------------------------------------------------------------------------------|
A|-2-----------2-----------------------------------2-----------2-----------0-----------------------|
E|-------------------------3-----------3-----------------------------------------------3-----------|

   Guitar 2
e|-----------------------------2---2-------0---0-------------------------------0---0-------0---0---|
B|-0---2---3---0---2---3---0-----------0-----------0---2---3---0---2---3---0-----------0-----------|
G|-------------------------------------------------------------------------------------------------|
D|---4---4---4---4---4---4---4---4---4---4---4---4---4---4---4---4---4---4---2---2---2---0---0---0-|
A|-2-----------2-----------------------------------2-----------2-----------0-----------------------|
E|-------------------------3-----------3-----------------------------------------------3-----------|

  Guitar 1
e|-----0---2-------0---2-------2---2-------0---0---0-----------0-----------2-----------2-----------|
B|-3-----------3-----------3-----------3-------------0---0-------0---0-------2---2-------2---2-----|
G|---4---4---4---4---4---4---4---4---4---4---4---4-----0-----0-----0-----0-----2-----2-----2-----2-|
D|---------------------------------------------------------4-----------4-----------4-----------4---|
A|-2-----------2-----------------------------------------------------------------------------------|
E|-------------------------3-----------3-----------------------------------------------------------|

   Guitar 2
e|-----------------------------2---2-------0---0---0-----------0-----------2-----------2-----------|
B|-0---2---3---0---2---3---0-----------0-------------0---0-------0---0-------2---2-------2---2-----|
G|-----------------------------------------------------0-----0-----0-----0-----2-----2-----2-----2-|
D|---4---4---4---4---4---4---4---4---4---4---4---4---------4-----------4-----------4-----------4---|
A|-2-----------2-----------------------------------------------------------------------------------|
E|-------------------------3-----------3-----------------------------------------------------------|

  Guitar 1
e|-2---3---5---2---3---5---7---5---5-------0---0---2---3---5---2---3---5---0---3---3---2---0-------|
B|-------------------------------------3-------------------------------------------------------3---|
G|---4---4---4---4---4---4---------------0---0---0---4---4---4---4---4---4---4---4---4---4---4---4-|
D|---------------------------5---5---5-------------------------------------------------------------|
A|-2-----------2-----------------------------------2-----------2-----------------------------------|
E|-------------------------3-----------3-----------------------------------3-----------3-----------|

  Guitar 2
e|-----------------------------2---2-------0---0-------------------------------0---0-------0---0---|
B|-0---2---3---0---2---3---0-----------0-----------0---2---3---0---2---3---0-----------0-----------|
G|-------------------------------------------------------------------------------------------------|
D|---4---4---4---4---4---4---4---4---4---4---4---4---4---4---4---4---4---4---2---2---2---0---0---0-|
A|-2-----------2-----------------------------------2-----------2-----------0-----------------------|
E|-------------------------3-----------3-----------------------------------------------3-----------|

  Guitar 1
e|-2---3---5---2---3---5---7---5---5-------0---0---3-----------3-----------5-----------9--------------|
B|-------------------------------------3-------------5---5-------5---5-------7---7-------10---10------|
G|---4---4---4---4---4---4---------------0---0---0-----4-----4-----4-----4-----6-----6------9-------9-|
D|---------------------------5---5---5---------------------5-----------5-----------7-------------11---|
A|-2-----------2--------------------------------------------------------------------------------------|
E|-------------------------3-----------3--------------------------------------------------------------|

  Guitar 2
e|-----------------------------2---2-------0---0---3-----------3-----------5-----------9--------------|
B|-0---2---3---0---2---3---0-----------0-------------5---5-------5---5-------7---7-------10---10------|
G|-----------------------------------------------------4-----4-----4-----4-----6-----6------9-------9-|
D|---4---4---4---4---4---4---4---4---4---4---4---4---------5-----------5-----------7-------------11---|
A|-2-----------2--------------------------------------------------------------------------------------|
E|-------------------------3-----------3--------------------------------------------------------------|

  Guitar 1
e|----------------------------------------------------------------------------------------------|
B|-----------2-----------5-----------7-----------------------2-----------5-----------7-5--------|
G|---4-2-4-------7-6-7-------7-6-7-------9-7-9---6---4-2-4-------7-6-7-------7-6-7--------7-6-6-|
D|-4-------4---5-------5---4-------4---7-------7---4-------4---5-------5---4-------4------------|
A|----------------------------------------------------------------------------------------------|
E|----------------------------------------------------------------------------------------------|

  Guitar 3
e|-0-----------3-----------2-----------0-----------0-----------3-----------2-----------0--------|
B|-3-----------3-----------3-----------2-----------3-----------3-----------3-----------2--------|
G|-4-----------0-----------2-----------2-----------4-----------0-----------2-----------2--------|
D|-4-----------0-----------0-----------2-----------4-----------0-----------0-----------2--------|
A|-2-----------2-----------------------0-----------2-----------2-----------------------0--------|
E|-------------3-----------------------------------------------3--------------------------------|

  Guitar 1
e|-------------------------------------------------------------------------------------------------------|
B|-----------2-----------5-----------7-----------------------2-----------5---5-3-5---5---7-5-7-----------|
G|---4-2-4-------7-6-7-------7-6-7-------9-7-9---6---4-2-4-------7-6-7---------------------------6-7-6-4-|
D|-4-------4---5-------5---4-------4---7-------7---4-------4---5-------5---2-------2---4-------4---------|
A|-------------------------------------------------------------------------------------------------------|
E|-------------------------------------------------------------------------------------------------------|

  Guitar 2
e|---------------7-5-7---5-----------5-----------------------------7-5-7-------------7-------------------|
B|---7-5-7---7---------------7-5-7-------8-7-8-----7---7-5-7---7-----------5-8-7-8-----7--8-7------------|
G|-4-------4---7-------7---4-------4-------------8---4-------4---7-------7---------7----------6--7-6-4---|
D|-------------------------------------9-------9---------------------------------------------------------|
A|-------------------------------------------------------------------------------------------------------|
E|-------------------------------------------------------------------------------------------------------|

  Guitar 3
e|-0-----------3-----------2-----------0-----------0-----------3-----------0-------------------0-------0-|
B|-3-----------3-----------3-----------2-----------3-----------3-----------5-----------7-------2-------3-|
G|-4-----------0-----------2-----------2-----------4-----------0-----------4-----------6-------2-------4-|
D|-4-----------0-----------0-----------2-----------4-----------0-----------2-----------4-------2-------4-|
A|-2-----------2-----------------------0-----------2-----------2-------------------------------0-------2-|
E|-------------3-----------------------------------------------3-----------------------------------------|
Добавлено: 29.11.2015
Другие материалы по этой песне:
  • Аккорды и текст

Страница создана 29.11.2015
http://primanota.ru/insomnium/swarm-chords.htm
Привет, Гость.
Предлагаем пройти революционный курс по гитаре.
Подарок от PrimaNota.Ru, забирай!