PrimaNota.ru - самый крупный в мире бесплатный архив песенных текстов, аккордов, табулатур и нот


Insomnium - Decoherence - таба, видео

Регистрация Запомнить меня
Войти через:  Facebook Google Twitter Vk Yandex Mail.ru

Insomnium - Decoherence - таба, видео

Печатать
Просмотров: 130
-------------------------------------------------------------------------------
                             DECOHERENCE - INSOMNIUM
-------------------------------------------------------------------------------
Tabbed by: PUNC4KE

e|-8----------------8---------------------8-------------8------------------|
B|-------------------------------------------------------------------------|
G|-----10---10---10-----10---10---10---10-----9---9---9-----9---9---9-9-10-|
D|-------------------------------------------------------------------------|
A|---8----8----8------8----8----8----8------7---7---7-----7---7---7--------|
E|-------------------------------------------------------------------------|

e|-8----------------8---------------------8-------------10------10-8-------|
B|-------------------------------------------------------------------------|
G|-----10---10---10-----10---10---10---10-----9---9---9-----9----------9---|
D|-------------------------------------------------------------------------|
A|---8----8----8------8----8----8----8------7---7---7-----7---7------7---7-|
E|-------------------------------------------------------------------------|

e|-8----------------8---------------------8-------------8------------------|
B|-------------------------------------------------------------------------|
G|-----10---10---10-----10---10---10---10-----9---9---9-----9---9---9-9-10-|
D|-------------------------------------------------------------------------|
A|---8----8----8------8----8----8----8------7---7---7-----7---7---7--------|
E|-------------------------------------------------------------------------|

e|-8----------------8---------------------8---------------------------------------|
B|------------------------------------------------------11---------11-10----------|
G|-----10---10---10-----10---10---10---10-----9---9---9---------------------12----|
D|-----------------------------------------------------------12-------------------|
A|---8----8----8------8----8----8----8------7---7---7-----10----10-------10----10-|
E|--------------------------------------------------------------------------------|

e|----------------------------------------------------------------------------------------|
B|-10-------------------10----------------------10-8----------------8---------------------|
G|----------------------------------------------------------------------------------------|
D|-------12----12----12-------12----12----12-----------10---10---10-----10---10---10---12-|
A|----------------------------------------------------------------------------------------|
E|----10----10----10-------10----10----10----10------8----8----8------8----8----8----8----|

e|----------------------------------------------------------------------------------------|
B|-10-------------------10----------------------10-8----------------8---------------------|
G|----------------------------------------------------------------------------------------|
D|-------12----12----12-------12----12----12-----------10---10---10-----10---10---10---12-|
A|----------------------------------------------------------------------------------------|
E|----10----10----10-------10----10----10----10------8----8----8------8----8----8----8----|

e|-------------------------------------------------------------------------------------|
B|-10-------------------10----------------------10-8-----------------------------------|
G|------------------------------------------------------------------9---9---9-10---9---|
D|-------12----12----12-------12----12----12-----------10---10---10--------------------|
A|-------------------------------------------------------------------------------------|
E|----10----10----10-------10----10----10----10------8----8----8------8---8------8---8-|

e|---------------------------------------------------------------------------|
B|-8----------------8--------------------------------------------------------|
G|-----10---10---10-----10---10---10---9-10---9---9---9-10---9---------------|
D|---------------------------------------------------------------10---10---7-|
A|---8----8----8------8----8----8----8------7---7---7------7---7-------------|
E|------------------------------------------------------------------8----8---|

e|---------------------------------------------------------------------------|
B|-8----------------8--------------------------------------------------------|
G|-----10---10---10-----10---10---10---9-10---9---9---9-10---9---------------|
D|---------------------------------------------------------------10---10---7-|
A|---8----8----8------8----8----8----8------7---7---7------7---7-------------|
E|------------------------------------------------------------------8----8---|

e|-8----------------8---------------------8-------------8------------------|
B|-------------------------------------------------------------------------|
G|-----10---10---10-----10---10---10---10-----9---9---9-----9---9---9-9-10-|
D|-------------------------------------------------------------------------|
A|---8----8----8------8----8----8----8------7---7---7-----7---7---7--------|
E|-------------------------------------------------------------------------|

e|-8----------------8---------------------8-------------10------10-8-------|
B|-------------------------------------------------------------------------|
G|-----10---10---10-----10---10---10---10-----9---9---9-----9----------9---|
D|-------------------------------------------------------------------------|
A|---8----8----8------8----8----8----8------7---7---7-----7---7------7---7-|
E|-------------------------------------------------------------------------|

e|-8----------------8---------------------8-------------8------------------|
B|-------------------------------------------------------------------------|
G|-----10---10---10-----10---10---10---10-----9---9---9-----9---9---9-9-10-|
D|-------------------------------------------------------------------------|
A|---8----8----8------8----8----8----8------7---7---7-----7---7---7--------|
E|-------------------------------------------------------------------------|

e|-8----------------8---------------------8---------------------------------------|
B|------------------------------------------------------11---------11-10----------|
G|-----10---10---10-----10---10---10---10-----9---9---9---------------------12----|
D|-----------------------------------------------------------12-------------------|
A|---8----8----8------8----8----8----8------7---7---7-----10----10-------10----10-|
E|--------------------------------------------------------------------------------|

e|----------------------------------------------------------------------------------------|
B|-10-------------------10----------------------10-8----------------8---------------------|
G|----------------------------------------------------------------------------------------|
D|-------12----12----12-------12----12----12-----------10---10---10-----10---10---10---12-|
A|----------------------------------------------------------------------------------------|
E|----10----10----10-------10----10----10----10------8----8----8------8----8----8----8----|

e|----------------------------------------------------------------------------------------|
B|-10-------------------10----------------------10-8----------------8---------------------|
G|----------------------------------------------------------------------------------------|
D|-------12----12----12-------12----12----12-----------10---10---10-----10---10---10---12-|
A|----------------------------------------------------------------------------------------|
E|----10----10----10-------10----10----10----10------8----8----8------8----8----8----8----|

e|-------------------------------------------------------------------------------------|
B|-10-------------------10----------------------10-8-----------------------------------|
G|------------------------------------------------------------------9---9---9-10---9---|
D|-------12----12----12-------12----12----12-----------10---10---10--------------------|
A|-------------------------------------------------------------------------------------|
E|----10----10----10-------10----10----10----10------8----8----8------8---8------8---8-|

e|---------------------------------------------------------------------------|
B|-8----------------8--------------------------------------------------------|
G|-----10---10---10-----10---10---10---9-10---9---9---9-10---9---------------|
D|---------------------------------------------------------------10---10---7-|
A|---8----8----8------8----8----8----8------7---7---7------7---7-------------|
E|------------------------------------------------------------------8----8---|

e|---------------------------------------------------------------------------|
B|-8----------------8--------------------------------------------------------|
G|-----10---10---10-----10---10---10---9-10---9---9---9-10---9---------------|
D|---------------------------------------------------------------10---10---7-|
A|---8----8----8------8----8----8----8------7---7---7------7---7-------------|
E|------------------------------------------------------------------8----8---|

e|---------------------------------------------------------------------------|
B|-8----------------8--------------------------------------------------------|
G|-----10---10---10-----10---10---10---9-10---9---9---9-10---9---------------|
D|---------------------------------------------------------------10---10---7-|
A|---8----8----8------8----8----8----8------7---7---7------7---7-------------|
E|------------------------------------------------------------------8----8---|

e|------------------------------------------------------------------------------|
B|-8----------------8-----------------------------------------------------------|
G|-----10---10---10-----10---10---10---9-10---9---9---9-10---9------------------|
D|---------------------------------------------------------------10---10---7-10-|
A|---8----8----8------8----8----8----8------7---7---7------7---7----------------|
E|------------------------------------------------------------------8----8------|
Добавлено: 29.11.2015
Другие материалы по этой песне:

Страница создана 17.11.2013
http://primanota.ru/insomnium/decoherence-chords.htm
Привет, Гость.
Предлагаем пройти революционный курс по гитаре.
Подарок от PrimaNota.Ru, забирай!