PrimaNota.ru - самый крупный в мире бесплатный архив песенных текстов, аккордов, табулатур и нот


Insomnium - Mortal Share - текст песни, таба, видео

Регистрация Запомнить меня
Войти через:  Facebook Google Twitter Vk Yandex Mail.ru

Insomnium - Mortal Share - текст песни, таба, видео

Печатать
Просмотров: 503
Уроки эстрадного вокала в Санкт-Петербурге
Авторы музыки: Niilo Sevänen, Ville Friman

email any corrections/insults/questions to the email down there

Tabbed by: Shelldon the turtle

Email:i-luv-emos@hotmail.com


Tuning: drop D

this is the  riff that the the lead plays in the intro

e|-----------------------------------------------------------------------------|
B|---7--8-8-7-------7-7-8-7----------------------------------------------------| x4
G|-----------------------------------------------------------------------------|
D|-----------------------------------------------------------------------------|
A|-----------------------------------------------------------------------------|
D|-----------------------------------------------------------------------------|
(backing guitar cuts out: plays the first riff again)
(singer screams)
e|---------------7----------------------------8-----------------------------------|
B|----7-8-8-7---8-7-8-7-------7-8-8-7---8-7-8-7-----------------------------------|
G|--------------------------------------------------------------------------------|   7x
D|--------------------------------------------------------------------------------|
A|--------------------------------------------------------------------------------|
E|--------------------------------------------------------------------------------|

verse

e|-----------------------------------------------------------------------------|
B|-----------------------------------------------------------------------------|
G|-----------------------------------------------------------------------------|
D|-----------------------------------------------------------------------------|
A|-----------------------------------------------------------------------------|
D|--4-4-3-4-3-4-3-4-4----------------------------------------------------------|

sorry i cant work out the solo.. quite. heres what i could make of what the backing 
plays through it.
e|-----------------------------------------------------------------------------|
B|-----------------------------------------------------------------------------|
G|-----------------------------------------------------------------------------|
D|-----------------------------------------------------------------------------|
A|--4-4-3-4-3-4-3-4-4----------------------------------------------------------|
D|-----------------------------------------------------------------------------|

thats it i hope its correct. the intro sounds about 98% correct when played.

| /  slide up
| \  slide down
| h  hammer-on
| p  pull-off
| ~  vibrato
| +  harmonic
| x  Mute note
===============================================================================
Добавлено: 18.03.2012
Другие материалы по этой песне:

Страница создана 04.03.2012
http://primanota.ru/insomnium/mortal-share-chords.htm
Привет, Гость.
Предлагаем пройти революционный курс по гитаре.
Подарок от PrimaNota.Ru, забирай!