PrimaNota.ru - самый крупный в мире бесплатный архив песенных текстов, аккордов, табулатур и нот


Insomnium - Where The Last Wave Broke - текст песни, таба, видео

Регистрация Запомнить меня
Войти через:  Facebook Google Twitter Vk Yandex Mail.ru

Insomnium - Where The Last Wave Broke - текст песни, таба, видео

Печатать
Просмотров: 190
this muh first tab?!!?
the rest coming soon!!!!
should be 100% cept maybe 2nd ending..


d|--------------------------------------------------------------|
a|--------------------------------------------------------------|
f|--------------------------------------------------------------|
C|------------------------------------7---------9-----10---9-9--|
G|-------7--------------7-------5p0-0---0-5p0-7---7-7----7------|
D|-3p0-0---0--3p0-3p0-0---0-0p3---------------------------------|
pm     *   *          *   *         *   *     *   * *    *      |



d|--------------------------------------------------------------|
a|--------------------------------------------------------------|
f|----------------------------------------------7-7-7-----------|
C|------------------------------------7---------5-5-5---7-7-7---|
G|-------7--------------7-------5p0-0---0-5p0-0-------0-5-5-5---|
D|-3p0-0---0--3p0-3p0-0---0-0p3---------------------------------|
pm     *   *          *   *         *   *     *       *         |
Добавлено: 23.06.2012
Другие материалы по этой песне:

Страница создана 19.04.2012
http://primanota.ru/insomnium/where-the-last-wave-broke-chords.htm
Привет, Гость.
Предлагаем пройти революционный курс по гитаре.
Подарок от PrimaNota.Ru, забирай!