PrimaNota.ru - самый крупный в мире бесплатный архив песенных текстов, аккордов, табулатур и нот


Insomnium - Change Of Heart - текст песни, бас-таба, видео

Регистрация Запомнить меня
Войти через:  Facebook Google Twitter Vk Yandex Mail.ru

Insomnium - Change Of Heart - текст песни, бас-таба, видео

Печатать
Просмотров: 243
Авторы музыки: Niilo Sevänen, Ville Friman

---------------------------------------------------------------------------
		        CHANGE OF HEART – Insomnium
---------------------------------------------------------------------------

Artist: Insomnium
Artist's official website: http://www.insomnium.net/

Tabbed By : Hurm
Tuning: standard 5-string (BEADG)


! Note: song is in 6/8, so 6 notes in every measure! To keep this tab 
  readable, only 3 notes are given per measure, so '444' is one measure, 
  but you play '444444'! Good luck!


Chorus
G|--------------------------------------------------|
D|--------------------------------------------------|
A|--------------------------------------------------|
E|-------------333333333333666666666666111111111111-|
B|-444444444444-------------------------------------|

G|--------------------------------------------------|
D|--------------------------------------------------|
A|--------------------------------------------------|
E|-------------333333333333111111111111888888---111-|
B|-444444444444------------------------------444----|

Verse
G|--------------------------|
D|--------------------------|
A|----------333---111---333-| 3x
E|-333333333---333---111----|
B|--------------------------|

G|--------------------------|
D|--------------------------|
A|----------333---111-------|
E|-333333333---333---111----|
B|----------------------333-|

Chorus
G|--------------------------------------------------|
D|--------------------------------------------------|
A|--------------------------------------------------|
E|-------------333333333333666666666666111111111111-|
B|-444444444444-------------------------------------|

G|--------------------------------------------------|
D|--------------------------------------------------|
A|--------------------------------------------------|
E|-------------333333333333111111111111888888---111-|
B|-444444444444------------------------------444----|

Post-chorus
G|----------|
D|----------|
A|----------|
E|----1113~-|
B|-444------|

Solo
G|--------------------------|
D|--------------------------|
A|--------------------------|
E|-3~----------3~-6~--------|
B|-------------------3~-----|

G|--------------------------|
D|--------------------------|
A|----------1/35~-8~-3~-3~--|
E|-3~----6~-----------------|
B|----4/6-------------------|
                  ^
G|--------------------------|
D|--------------------------|
A|--------------------------|
E|-3~----------3~-6~--------|
B|-------------------3~-----|

G|--------------------------|
D|--------------------------|
A|----------1/35~8~--3~-3~--|
E|-3~----6~-----------------|
B|----4/6-------------------|
                 ^sooner than first time!

G|--------------------------|
D|--------------------------|
A|--------------------------|
E|-333333333333333666-------|
B|-------------------333333-|

G|--------------------------|
D|--------------------------|
A|-------------555555333333-|
E|-333333666666-------------|
B|--------------------------|

G|--------------------------|
D|--------------------------|
A|--------------------------|
E|-333333333333333666-------|
B|-------------------333333-|

G|--------------------------|
D|--------------------------|
A|-------------555558333333-|
E|-333333666666-------------|
B|--------------------------|

Verse
G|--------------------------|
D|--------------------------|
A|----------333---111---333-|
E|-3--333333---333---111----|
B|--------------------------|

G|--------------------------|
D|--------------------------|
A|----------333---111---333-| 2x
E|-333333333---333---111----|
B|--------------------------|

G|--------------------------|
D|--------------------------|
A|----------333---111-------|
E|-333333333---333---111----|
B|----------------------333-|

Bridge
G|------------------------------------------------------------|
D|------------------------------------------------------------|
A|------------------------------------------------------------|
E|-------------------------------3~----6~----------1~---------|
B|-4~---------------------------------------------------------|

Chorus
G|--------------------------------------------------|
D|--------------------------------------------------|
A|--------------------------------------------------|
E|-------------333333333333666666666666111111111111-|
B|-444444444444-------------------------------------|

G|--------------------------------------------------|
D|--------------------------------------------------|
A|--------------------------------------------------|
E|-------------333333333333111111111111888888---111-|
B|-444444444444------------------------------444----|

Ending
G|----------|
D|----------|
A|----------|
E|----1113~-|
B|-444------|


| /  slide up
| ~  let ring

===========================================================================
Добавлено: 25.02.2012
Другие материалы по этой песне:

Страница создана 25.02.2012
http://primanota.ru/insomnium/change-of-heart-chords.htm
Привет, Гость.
Предлагаем пройти революционный курс по гитаре.
Подарок от PrimaNota.Ru, забирай!