PrimaNota.ru - самый крупный в мире бесплатный архив песенных текстов, аккордов, табулатур и нот


Immortal - At The Heart Of Winter - аккорды и текст, таба, видео

Регистрация Запомнить меня
Войти через:  Facebook Google Twitter Vk Yandex Mail.ru

Immortal - At The Heart Of Winter - аккорды и текст, таба, видео

Печатать
Просмотров: 471
Уроки эстрадного вокала в Санкт-Петербурге
Авторы музыки: Abbath Doom Occulta
Авторы текста: Demonaz Doom Occulta
At The Heart Of Winter
Immortal
		   If you have eny cortion send me on m_s_demogorgon@abv.bg

e |-u--------------------------------------------------------------|
B |----------------------------------------------------------------|
G |-6--------------------------------------------------------------|
D |-6--------------------------------------------------------------|
A |-4--------------------------------------------------------------|
E |----------------------------------------------------------------|


e |------------------------------------------------------------------------
B |------------------------------------------------------------------------
G |------------------------------------------------------------------------
D |-13---9---13--------------13--14--18-------------13--14--13-------------
A |-13---7---13-14-14-13-13--13--14--18-14-14-16-14-13--14--13-14-14-13-13-
E |-11---0---11--------------11--12--16-------------11--12--11-------------

e -------------let-ring-|-16-14-16--16-14-16-19--16-14-16--14-16-19--
B -------------^--------|--------------------------------------------
G -------------^--------|--------------------------------------------
D -13--14--16--11-------|--------------------------------------------
A -13--14--16--11-------|--------------------------------------------
E -11--12--14--9--------|--------------------------------------------

e -12-14--12-11--7--14-16--14-16-19--14-16--14-16-19--12-14--12-11--7--9--|
B ------------------------------------------------------------------------|
G ------------------------------------------------------------------------|
D ------------------------------------------------------------------------|
A ------------------------------------------------------------------------|
E ------------------------------------------------------------------------|

e |----------------------------------------------------------a.h.--|
B |----------------------------------------------------------------|
G |----^---------------^--------------^----------------------------|
D |-9979--9979------9979--99714-12-9979--9979-----9979--99714-^----|
A |-7757--7757------7757--77512-10-7757--7757-----7757--77512-10---|
E |------------12\----------------------------12\------------------|




e |-0-----------0-------------0-------0----------------|
B |-0-----------0-------------0-------0----------------|
G |-9-7-9-------9-7-9---------9-7-9---9-7-9------------|
D |-9-7-9-------9-7-9---1211--9-7-9---9-7-9-14141412---|
A |-7-5-7-------7-5-7-00109---7-5-7---7-5-7-12121210---|
E |-0-----00000-0-------------0-------0----------------|


e |----------------------------------------------------------------------|
B |----------------------------------------------------------------------|
G |----------------------------------------------------------------------|
D |-2--------5------2--------------444-555-777-7\--2------5------7---5-7-|
A |-2--------5------2----------555--------------2--2------5------7---5-7-|
E |-0--------3------0-----0-00----------------0-0--0------3------5---3-5-|

e |---------------------------------------------------------------------
B |---------------------------------------------------------------------
G |---------------------------------------------------------------------
D |-9-99-9-99-9-99-9-9-10-1010-10-1010-10-1010-10-10-9-99-9-99-9-99--9-9
A |-7-77-7-77-7-77-7-7-7--7-7--7--7-7--7--7-7--7--7--7-77-7-77-7-77--7-7
E |---------------------------------------------------------------------

-------------------------------------------------------------------------------|
-------------------------------------------------------------------------------|
-9-----9---7--7----------------------------------------------------------------|
--1010-1010-99-99--9-99-9-99-9-99-9-9-10-1010-10-1010-10-1010-10-10-9----7--x\-|
-------------------7-77-7-77-7-77-7-7-7--7-7--7--7-7--7--7-7--7--7--7----5--x\-|
----------------------------------------------------------------------------x\-|

|---------------------------------------------------------------------------------------
|---------------------------------------------------------------------------------------
|----------------------------------------------------------------------9-----9---7--7---
|-9-99-9-99-9-99-9-9-10-1010-10-1010-10-1010-10-10-9-99-9-99-9-99--9-9--1010-1010-99-99-
|-7-77-7-77-7-77-7-7-7--7-7--7--7-7--7--7-7--7--7--7-77-7-77-7-77--7-7------------------
|---------------------------------------------------------------------------------------

---------------------------------------------------------------------
---------------------------------------------------------------------
---------------------------------------------------------------------
-9-99-9-99-9-99-9-9-10-1010-10-1010-10-1010-10-10-9--10-101010-12-10-
-7-77-7-77-7-77-7-7-7--7-7--7--7-7--7--7-7--7--7--7--8--8-8-8--10-8--
---------------------------------------------------------------------

---------------------------------------------------------------------------------------
---------------------------------------------------------------------------------------
----------------------------------------------------------------------9-----9---7--7---
-9-99-9-99-9-99-9-9-10-1010-10-1010-10-1010-10-10-9-99-9-99-9-99--9-9--1010-1010-99-99-
-7-77-7-77-7-77-7-7-7--7-7--7--7-7--7--7-7--7--7--7-77-7-77-7-77--7-7------------------
---------------------------------------------------------------------------------------





----------------------------------------------------------------|
----------------------------------------------------------------|
----------------------------------------------------------------|
-9-99-9-99-9-99-9-9-10-1010-10-1010-10-1010-10-10-9------7------|
-7-77-7-77-7-77-7-7-7--7-7--7--7-7--7--7-7--7--7--7------5------|
--------------------------------------------------7------5------|


    RIFF E 2x
e |--------------------------------------------------------------------------|
B |--------------------------------------------------------------------------|
G |--------------------------------------------------------------------------|
D |-999999xx77777777555555xx3333333-------9999999xx7799101099977777755555577-|
A |--------------------------------3333333--------------------------------55-|
E |--------------------------------------------------------------------------|

e |------------------------------------------------------------------
B |------------------------------------------------------------------
G |-----------------------------------------------5------------------
D |----------9------------9------------99977755544-----------9-10/13-
A |7~-7-9-10---10~-7-9-10---9~--7-9-10--------------7~-7h9h10--------
E |------------------------------------------------------------------

e -----------///--///--///--///--///-///-///-///--------------------
B -----------12p0-12p0-10p0-10p0-8p0-8p0-7p0-7p0-121212101010888777-
G ------------------------------------------------------------------
D (13)~-14~---------------------------------------------------------
A ------------------------------------------------------------------
E ------------------------------------------------------------------

e --------------------------------------------------------------------
B 1212121010108887----121212101010888777-12121210101088877\5----------
G --------------------------------------------------------------------
D --------------------------------------------------------------------
A ----------------------------------------------------------7~-7-9-10-
E --------------------------------------------------------------------

e --------------------------------------------------------------------
B --------------------------------------------------------------------
G ------------------------------------------------------5~------------
D 9---------------9-----------9p0-9p0-7p0-7p0-5p0-5p0-4~--------------
A --10~-7-9-10-10---9~-7-9-10------------------------------7~--6~--3~-
E --------------------------------------------------------------------






e -------------------------------------------------------------------
B -------------------------------------------------------------------
G -------------------------------------------------------------------
D 5--5--5---6-5---6-5--4-3--3--3--4-3--4-3--2-5--5--5--6-5--6-5--5---
A -6--6--6-----6-----6----4--4--4----4----4----6--6--6----6----6--6--
E --8--8--8-----8-----8----6--6--6----6----6----8--8--8----8----8--8-

e --------------------------repeat...or play like this, I don't know--------
B -----------------------------|--------------------------------------------
G -----------------------------|-12----12----12----13-12----13-12----12-----
D 3--3--3--3--7---7---7---7----|---13----13----13-------13-------13----13---
A -4--4--4--4--8---8---8---8---|-----15----15----15-------15-------15----15-
E --6--6--6--6--10--10--10--10-|--------------------------------------------

e -----------------------------------------------------------------------
B -----------------------------------------------------------------------
G -10----10----10----11-10----11-10----10----12----12----12----13-12-----
D ---11----11----11-------11-------11----11----13----13----13-------13---
A -----13----13----13-------13-------13----13----15----15----15-------15-
E -----------------------------------------------------------------------

e ------------------------------------------------------------------------|
B ------------------------------------------------------------------------|
G 12----13-12----12----10----10----10----10----14----14----14----14---14\-|
D --13-------13----13----11----11----11----11----15----15----15----15-----|
A ----15-------15----15----13----13----13----13----17----17----17---------|
E ------------------------------------------------------------------------|     
Добавлено: 04.09.2013
Другие материалы по этой песне:

Страница создана 11.03.2012
http://primanota.ru/immortal/at-the-heart-of-winter-chords.htm
Привет, Гость.
Предлагаем пройти революционный курс по гитаре.
Подарок от PrimaNota.Ru, забирай!