PrimaNota.ru - самый крупный в мире бесплатный архив песенных текстов, аккордов, табулатур и нот


Immortal - Solarfall - аккорды и текст, таба, видео

Регистрация Запомнить меня
Войти через:  Facebook Google Twitter Vk Yandex Mail.ru

Immortal - Solarfall - аккорды и текст, таба, видео

Печатать
Просмотров: 163
Авторы музыки: Abbath Doom Occulta
Авторы текста: Demonaz Doom Occulta
Solarfall
Immortal
		   -¦- -¦- -¦- -¦- -¦- -¦- -¦- -¦- -¦- -¦- -¦-
-¦- -¦- -¦- -¦- -¦- -¦- -¦- -¦- -¦- -¦- -¦-
-¦- -¦- -¦- WWW.THEUNDERZONE.TK -¦- -¦- -¦-
-¦- -¦- -¦- -¦- -¦- -¦- -¦- -¦- -¦- -¦- -¦-
-¦- -¦- -¦- -¦- -¦- -¦- -¦- -¦- -¦- -¦- -¦-

(}{||
Tabbed by Hades

Artist: Immortal
Song: Solarfall
Album: At the heart of winter

Tunning: EBGDAE

Riff1
|-------------------------------------------------------|
|-------------------------------------------------------|
|---------------------------------------------------5~--|
|-----7h9----5h7----4h5-5-------7h9-----5h7-----4h5-----|
|-------------------------5-----------------------------|
|-000-----000---000---------000-----000-----000---------|

Riff1 ending
|-------------------------------------------------------|
|-------------------------------------------------------|
|-----------------------------9-9--7-7--5-5--4----------|
|-----7h9----5h7----4h5-5-----9-9--7-7--5-5--4--5-------|
|-------------------------5---7-7--5-5--3-3--2--5-------|
|-000-----000---000-----------------------------3-------|

Riff2
|------------------------------------------|
|------------------------------------------|
|-9-9--1111-12-12-----------9-9--1111-7----|
|-9-9--1111-12-12--9--97----9-9--1111-7----|
|-7-7--9-9--10-10---10--910-7-7--9-9--5----|
|------------------------------------------|

|----------------------------------------------|
|----------------------------------------------|
|-9-9--1111-12-12-----------9-9--1111-7---9-9--|
|-9-9--1111-12-12--9--97----9-9--1111-7---9-9--|
|-7-7--9-9--10-10---10--910-7-7--9-9--5---7-7--|
|----------------------------------------------|

Riff3 (vocals during this one)
|--------------------------------|
|--------------------------------|
|-9-9-9-9------------------------|
|-9-9-9-9---------8---------7----|
|-7-7-7-7---------8---------5----|
|---------0-0-0-0---0-0-0-0------|

|---------------------------------------|
|---------------------------------------|
|-9-9-9-9-------------------------------|
|-9-9-9-9---------8---------2-----------|
|-7-7-7-7---------8-----------5-3-2-----|
|---------0-0-0-0---0-0-0-0---------5-3-|

Riff4
|----------------------------------------------------|
|----------------------------------------------------|
|-7/9-9-9------10-10--------7/9-9-9------10\5--7--7--|
|-7/9-9-9------10-10-10-10--7/9-9-9------10\5--7--7--|
|-5/7-7-7------8--8--10-10--5/7-7-7------8-\3--5--5--|
|---------0--0-------8--8-----------0--0-------------|     
Добавлено: 18.07.2013
Другие материалы по этой песне:

Страница создана 13.03.2012
http://primanota.ru/immortal/solarfall-chords.htm
Привет, Гость.
Предлагаем пройти революционный курс по гитаре.
Подарок от PrimaNota.Ru, забирай!