PrimaNota.ru - самый крупный в мире бесплатный архив песенных текстов, аккордов, табулатур и нот


Immortal - One By One - аккорды и текст, таба, видео

Регистрация Запомнить меня
Войти через:  Facebook Google Twitter Vk Yandex Mail.ru

Immortal - One By One - аккорды и текст, таба, видео

Печатать
Просмотров: 359
Авторы музыки: Horgh, Abbath Doom Occulta
Авторы текста: Demonaz Doom Occulta
One By One
Immortal
		   ''''''''''''''''''''''''''''''''''''''''''''''''
-¦- -¦- -¦- -¦- -¦- -¦- -¦- -¦- -¦- -¦- -¦-
-¦- -¦- -¦- -¦- -¦- -¦- -¦- -¦- -¦- -¦- -¦-
-¦- -¦- -¦- WWW.THEUNDERZONE.TK -¦- -¦- -¦-
-¦- -¦- -¦- -¦- -¦- -¦- -¦- -¦- -¦- -¦- -¦-
-¦- -¦- -¦- -¦- -¦- -¦- -¦- -¦- -¦- -¦- -¦-

 ''''''''''''''''''''''''''''''''''''''''''''''''

(}{||

TITLE: One by One
ARTIST: Immortal
ALBUM: Sons of Northern Darkness
TABBER:(AUSTCA)
DATE:08/02/03

Tune your guitar down one step (as is the whole album i think)


Riff A
|--------------------------|---------------|-----|Gtr1&2
|--------------------------|---------------|-----|
|--------------------------|---------------|-----|
|-2------------------------|---------------|-----|
|-2---10101010---8-8-8-8---|-10101010-7/10-|-10\-|
|-0-0--0-0-0-0-0-0-0-0-0-0-|--0-0-0-0------|-----|
    .  . . . . . . . . . .    . . . .   Only Gtr2 plays this slide,
                                        for first two times.


|---------------------------------------|Gtr1&2
|---------------------------------------|
|-9-------------------------------------|
|-9-----------------------------------0-|
|-7---10101010---8-8-8-8---10101010-----|
|---0--0-0-0-0-0-0-0-0-0-0--0-0-0-0-----|
    .  . . . . . . . . . .  . . . .


|--------------------------|---------------|-----|Gtr1&2
|--------------------------|---------------|-----|
|-9------------------------|---------------|-----|
|-9------------------------|---------------|-----|
|-7---10101010---8-8-8-8---|-10101010-7/10-|-10\-|
|---0--0-0-0-0-0-0-0-0-0-0-|--0-0-0-0------|-----|
    .  . . . . . . . . . .    . . . .   Only Gtr2 plays this slide,
                                        for first two times.


|---------------------------------------|Gtr1&2
|---------------------------------------|
|---------------------------------------|
|-2-----------------------------------0-|
|-2---10101010---8-8-8-8---10101010-----|
|-0-0--0-0-0-0-0-0-0-0-0-0--0-0-0-0-----|
    .  . . . . . . . . . .  . . . .


Riff B
|------------------------------------------------------------|Gtr1
|------------------------------------------------------------|
|---------------------------10---------------------------10--|
|-9--9-7--9-7--9-7-9-7---------7----9--9-7--9-7--9-7-9-7-----|
|-7--7-8--7-8-10-8-7-8--8-8------8--7--7-8--7-8-10-8-7-8-----|
|------------------------------------------------------------|
|                       . .
|
|
|
|------------------------------------------------------------|Gtr2
|------------------------------------------------------------|
|--------------------------------------------------------10\-|
|-9--9-7--9-7--9-7-9-7-------9-7----9--9-7--9-7--9-7-9-7-----|
|-7--7-8--7-8-10-8-7-8--0-0------0--7--7-8--7-8-10-8-7-8-----|
|------------------------------------------------------------|
                        . .      .


Visit www.theunderzone.tk

Then play Riff A



Then play Riff B, at 48seconds this variation:
|---------------------------|Gtr1
|---------------------------|
|----------------------10---|
|-9--9-7--9-7--9-7-9-7--7-7-|
|-7--7-8--7-8-10-8-7-8----5-|
|---------------------------|
|
|
|
|
|---------------------------|Gtr2
|---------------------------|
|---------------------------|
|-9--9-7--9-7--9-7-9-7--9-7-|
|-7--7-8--7-8-10-8-7-8--8-5-|
|---------------------------|


Riff C
|------------------------------------------------------|Gtr1&2
|------------------------------------------------------|
|------------------------------------------------------|
|-------------------------12\11---7-10\9-9/10---9/12\9-|
|-777---777---777---777---10\-9-9-5--8\7-7/-8-7-7/10\7-|
|-----0-----0-----0-----0------------------------------|
      .     .     .     .

|--------------------------------------------------|Gtr1&2
|--------------------------------------------------|
|--------------------------------------------------|
|-------------------------12\11---7-10\9-9/10--9-7-|
|-777---777---777---777---10\-9-9-5--8\7-7/-8--7-5-|
|-----0-----0-----0-----0--------------------------|
      .     .     .     .

|------------------------------------------------------|Gtr1
|------------------------------------------------------|
|------------------------------------------------------|
|-------------------------12\11---7-10\9-9/10---9/12\9-|
|-777---777---777---777---10\-9-9-5--8\7-7/-8-7-7/10\7-|
|-----0-----0-----0-----0------------------------------|
|     .     .     .     .
|
|
|
|--------------------------------------------------|Gtr2
|--------------------------------------------------|
|-999---999---999---999----------------------------|
|-xxx---xxx---xxx---xxx---12\11---7-10\9-9/10--9-7-|
|-777---777---777---777---10\-9-9-5--8\7-7/-8--7-5-|
|-----0-----0-----0-----0--------------------------|
  ... . ... . ... . ... .


Riff D
|--------------------------------------------------------|Gtr1&2
|--------------------------------------------------------|
|-999999999999----------------999999999999---------------|
|-999999999999----------------999999999999--777----777---|
|-777777777777--555-----555---777777777777--555-5--555-5-|
|-------------------555-----5-------------------5------5-|


|---------------------------------------------------------|Gtr1&2
|---------------------------------------------------------|
|-999999999999-------------------999999999999-------------|
|-999999999999--7----------------999999999999-777---777---|
|-777777777777--5----------------777777777777-555-5-555-5-|
|-----------------555-555-5/6\5-------------------5-----5-|


Riff E Intro
|------------------------------------|Gtr1
|------------------------------------|
|------------------------------------|
|------9-----9--------9-----9--------|
|-10\5-7-----7--------7-----7------5-|
|--------000---0000-6---000---0000-6-|
|        ...   ....     ...   ....
|
|
|
|------------------------------------|Gtr2
|------------------------------------|
|------------------------------------|
|------9-----9--------9-----9--------|
|------7-----7--------7-----7------5-|
|--------000---0000-6---000---0000-6-|
         ...   ....     ...   ....


Riff E
|----------------------------------------|Gtr1&2
|----------------------------------------|
|----------------------------------------|
|-9-----9------7"--9-----9---------------|
|-7-----7------5"--7-----7---5"-10-9-7-5-|
|---000---0000-------000---0-------------|
    ...   ....       ...   .

|---------------------------------|Gtr1&2
|---------------------------------|
|---------------------------------|
|-9-----9------7"--9-----9--------|
|-7-----7------5"--7-----7------5-|
|---000---0000-------000---0000-6-|
    ...   ....       ...   ....

|----------------------------------------|Gtr1&2
|----------------------------------------|
|----------------------------------------|
|-9-----9------7"--9-----9---------------|
|-7-----7------5"--7-----7---5"-10-9-7-5-|
|---000---0000-------000---0-------------|
    ...   ....       ...   .

Riff F
|------------------------------------------------------|Gtr1&2
|------------------------------------------------------|
|-9--9/12--10------------------------------------------|
|-7--7/10---8--5-9-----9------------9-----9------------|
|-7--7/10---8--5-7-----7------7/8\5-7-----7------7/8\5-|
|-5--5/-8---6------000---0000---------000---0000-------|

Then play Riff E

Then play Riff F with this extra Gtr:
|------------------------------------------------------|Gtr3
|------------------------------------------------------|
|-9--9/12--12------------------------------------------|
|-7--7/10--10------------------------------------------|
|-7--7/10--10------------------------------------------|
|-5--5/-8---8------------------------------------------|


Riff E.2
|-----------------------------------------|Gtr1&2
|-----------------------------------------|
|-----------------------------------------|
|-9-----9------9------9-----9------9------|
|-7-----7------7/8\5--7-----7------7/8\5--|
|---000---0000----------000---0000--------|
|   ...   ....          ...   ....
|
|
|
|-----------------------------------------|Gtr3
|-----------------------------------------|
|-----------------------------------------|
|-999999999999999999-12121212121212121212-|
|-----------------------------------------|
|-----------------------------------------|
  ..................  . . . . . . . . . .


|-----------------------------------------|Gtr1&2
|-----------------------------------------|
|-----------------------------------------|
|-9-----9------9------9-----9------9------|
|-7-----7------7/8\5--7-----7------7/8\5--|
|---000---0000----------000---0000--------|
|   ...   ....          ...   ....
|
|
|
|-----------------------------------------|Gtr3
|-----------------------------------------|
|-----------------------------------------|
|-111111111111111111-10101010101010101010-|
|-----------------------------------------|
|-----------------------------------------|
   . . . . . . . . .  . . . . . . . . . .

Then play Riff C (chords are all palm muted on first time)
Then play Riff D

Then play Riff C with this ending:
|--------------------------------------------------|Gtr1&2
|--------------------------------------------------|
|--------------------------------------------------|
|-------------------------12-11---7-10-9-9/10--9-7-|
|-777---777---777---777---10--9-9-5--8-7-7/-8--7-5-|
|-----0-----0-----0-----0--------------------------|
      .     .     .     .  .  . . .  . . .  .  .     
Добавлено: 07.07.2013
Другие материалы по этой песне:

Страница создана 23.03.2012
http://primanota.ru/immortal/one-by-one-chords.htm
Привет, Гость.
Предлагаем пройти революционный курс по гитаре.
Подарок от PrimaNota.Ru, забирай!