PrimaNota.ru - самый крупный в мире бесплатный архив песенных текстов, аккордов, табулатур и нот


Immortal - Cryptic Winterstorms - текст песни, таба, видео

Регистрация Запомнить меня
Войти через:  Facebook Google Twitter Vk Yandex Mail.ru

Immortal - Cryptic Winterstorms - текст песни, таба, видео

Печатать
Просмотров: 62
Авторы музыки: Abbath Doom Occulta
Авторы текста: Demonaz Doom Occulta
Band:  Immortal
Album: Diabolical Fullmoon Mysticism
Song:  Cryptic winterstorms

Copyright (c)  Osmose Productions, 1992

Tuning E A D G B E

Intro  acoustic
    fade in
|-----------------------------------------------------------------------------|
|-----------------------------------------------------------------------------|
|-----------0--------------------------0------------------------0-------------|
|----5----5---5---(5)-----------3----3---3---(3)---------5----5---5---(5)-----|
|-3----33-------3-----3(3)--1-----11-------1-----1(1)------33-------3-----3(3)|
|------------------------------------------------------4----------------------|

(x)- ghost notes

|----------------------------------------------------|
|----------------------------------------------------|
|-----0------------0-----------------0---------------|
|---5---5--------3---3--------5----5---5----(5)------|
|-3-------3(3)-1-------1(1)-----33-------3------3(3)-|
|---------------------------4------------------------|


|---------------------------------------------------|
|---------------------------------------------------|
|-----------0------------------------0--------------|
|----3----3---3---(3)---------5----5---5---(5)------|
|-1----11-------1-----1(1)------33-------3-----3(3)-|
|---------------------------4-----------------------|

|-----------------------------|
|-----------------------------|
|-----------------------0-----|
|---5---5---------3-------3---|
|-3---3---3(3)--1---(1)-----1-|
|-----------------------------|




Riff 1

|---------------------------------------------------------------------------|
|---------------------------------------------------------------------------|
|---------------------------------------------------------------------------|
|---------------------------------------------------------------------------|
|--2---2---2---2--2-5---5---5---5---5--5-2---2---2---2--2-3--3--3-5--5--5-2-|
|--0---0---0---0--0-3---3---3---3---3--3-0---0---0---0--0-1--1--1-3--3--3-0-|


ending
|--------------------------------------|
|--------------------------------------|
|--------------------------------------|
|--------------------------------------|
|--2---2--2-2223----3335----5-3----3-5-|
|--0---0--0-0001----1113----3-1----1-3-|



Fill

Guitar 1 - clean

|-----------------------------------------------------------------------------|
|-----------------------------------------------------------------------------|
|--------------------------------------------------------------------0--------|
|--------0--------------------(5)-(5)-------------0--------------------(5)----|
|----4-----4---4--------5---5---------5-------4-----4---4-------5----------5--|
|2-----22----2---22-3-----3-------------3-2-----22----2---22--3---33---------3|

after it sounded for the first time,
(5) note can be played as open 3 string (accented)

alternative beginning (when whole Fill played 2-nd,
3-nd time and some other places)

|-----------------------|
|-----------------------|
|-----------------------|
|-----0----0-----0------|
|-------4----4-----4----|
|--2------2----2----2-3-|



Guitar 2 -chords

|-----------------------------------------------------------------|
|-----------------------------------------------------------------|
|-----------------------------------------------------------------|
|-----------------------------------------------------------------|
|--4------------------5----------------------4-------------------5|
|--2------------------3----------------------2-------------------3|


Riff 2

                           1-st time  2-nd time
|--------------------------|------|-----------|
|--------------------------|------|-----------|
|--------------------------|------|-----------|
|--------------------------|--5/4-|---5----4--|
|-3------5------5/4--------|--5/4-|---5----4--|
|-1------1------2/2--------|------|-2----2----|
trem.______________________________

trem. - tremolo picking

Riff 3

                       1-st time   2-nd time      ending
|--------------------|-----------|-----------|----------------|
|--------------------|-----------|-----------|----------------|
|--------------------|-----------|-----5---2-|----5--5/-6-/-7-|
|------3-------3-----|-3-/-4-/-3-|-3---3---0-|-3--3--3/-4-/-5-|
|--2---1---2---1---2-|-1-/-6-/-1-|-1---------|-1--------------|
|--0-------0-------0-|-----------|-----------|----------------|
trem.________________________________________________________


Riff 4
          (last time without ending slide)
|-----------------------------------------------------------|
|-----------------------------------------------------------|
|-7---7---7-7---6/7-7---7-7---5/6-6---6-6---5/6-6---666/4/6-|
|-5---5---5-5---4/5-5---5-5---3/4-4---4-4---3/4-4---444/2/4-|
|-------0-----0-------0-----0-------0-----0-------0---------|
|-----------------------------------------------------------|



Riff 5

 1 time                  last time
|-----|--------|-------|-----|
|-----|--------|-------|-----|
|-----|--------|-------|-----|
|-----|--------|-------|-----|
|-6/3-|-3/4-4/7|4/6--3-|-5/4-|
|-4/1-|-1/2-2/5|2/4--1-|-3/2-|

after that Fill and Riff 2

then

Riff 6

|----------------------------|
|----------------------------|
|----------------------------|
|----------------------------|
|--5--6--5-/6/5---5--6--4--3-|
|--3--3--2-/2/2---3--3--2--1-|
trem.______________________(first time last 2 chords without tremolo)

Riff 7
                                    alt.ending 1         alt end. 2
|---------------------------------|--------------------|--------------------|
|---------------------------------|--------------------|--------------------|
|----------5----------------------|----------5--2(tr.)-|----------5-5-/6-/7-|
|----4--3--3--4--3-----4--3--6--3-|----4--3--3--0------|----4--3--3-3-/4-/5-|
|-2--2--1-----2--1--2--2--1--4--1-|-2--2--1------------|-2--2--1------------|
|-0-----------------0-------------|-0------------------|-0------------------|

after that Riff 4 then Riff 1 and slowed down Riff 1 in the end of the song
with something like that at the background -

trem.
|--------------------------------------|
|--------------------------------------|
|------0------------0------------------|
|---0-----0------0-----0-.....---------|
|--------------------------------------|
|--------------------------------------|


Outro

     at the beginning              this part continues till the end fading out
|------------------------|-----------------------------------------------------|
|------------------------|-----------------------------------------------------|
|------0-------------0---|---------0-------------0------------0-------------0--|
|----0---0---------0---0-|-------0---0---------0---0--------0---0---------0---0|
|--5---------5---5-------|-5---5---------5---6--------6---2---------2---5------|
|3-------------3---------|---3-------------3------------3-------------3--------|
Добавлено: 08.11.2015
Другие материалы по этой песне:

Страница создана 15.06.2012
http://primanota.ru/immortal/cryptic-winterstorms-chords.htm
Привет, Гость.
Предлагаем пройти революционный курс по гитаре.
Подарок от PrimaNota.Ru, забирай!