PrimaNota.ru - самый крупный в мире бесплатный архив песенных текстов, аккордов, табулатур и нот


Hurt - Summers Lost - текст песни, таба, видео

Регистрация Запомнить меня
Войти через:  Facebook Google Twitter Vk Yandex Mail.ru

Hurt - Summers Lost - текст песни, таба, видео

Печатать
Просмотров: 247
Уроки эстрадного вокала в Санкт-Петербурге
Band: Hurt
Song: Summers Lost
Album: Vol. II

very sorry for the inconvenience. i got lazy while writing it so i put it on the wrong 
but it is fixed now. thank you

 e|-------------|        e|-------------|
 B|-------------|        B|-------------|
 G|-------2-----| x4     G|-------3-----| x6
 D|-0-2-3---3-2-|        D|-0-2-3---3-2-|
 A|-------------|        A|-------------|
 E|-------------|        E|-------------|
pm: . . . . . .             . . . . . .

 e|-------------|        |-------------|
 B|-------------|        |-------------|
 G|-------2-----| x1     |-------0-----| x1
 D|-0-2-3---3-2-|        |-0-2-3---3-2-|
 A|-------------|        |-------------|
 E|-------------|        |-------------|
pm: . . . . . .            . . . . . .

 e|-------------|        e|-------------|
 B|-------------|        B|-------------|
 G|-------2-----| x8     G|-------3-----| x6
 D|-0-2-3---3-2-|        D|-0-2-3---3-2-|
 A|-------------|        A|-------------|
 E|-------------|        E|-------------|
pm: . . . . . .             . . . . . .

 e|-------------|        |-------------|
 B|-------------|        |-------------|
 G|-------2-----| x1     |-------0-----| x1
 D|-0-2-3---3-2-|        |-0-2-3---3-2-|
 A|-------------|        |-------------|
 E|-------------|        |-------------|
pm: . . . . . .            . . . . . .


e|-------------|        e|-------------|
B|-------------|        B|-------------|
G|-------2-----| x8     G|-------3-----| x6
D|-0-2-3---3-2-|        D|-0-2-3---3-2-|
A|-------------|        A|-------------|
E|-------------|        E|-------------|

e|-------------|        |-------------|
B|-------------|        |-------------|
G|-------2-----| x1     |-------0-----| x1
D|-0-2-3---3-2-|        |-0-2-3---3-2-|
A|-------------|        |-------------|
E|-------------|        |-------------|

and thats it for the inro, i havent figured out the chords for later in the song yet so yea.
Добавлено: 12.06.2012
Другие материалы по этой песне:
  • Аккорды и текст

Страница создана 26.03.2012
http://primanota.ru/hurt/summers-lost-chords.htm
Привет, Гость.
Предлагаем пройти революционный курс по гитаре.
Подарок от PrimaNota.Ru, забирай!