PrimaNota.ru - самый крупный в мире бесплатный архив песенных текстов, аккордов, табулатур и нот


Hurt - Thank You For Listening - текст песни, таба, видео

Регистрация Запомнить меня
Войти через:  Facebook Google Twitter Vk Yandex Mail.ru

Hurt - Thank You For Listening - текст песни, таба, видео

Печатать
Просмотров: 166
-------------------------------------------------------------------------------
                 Thank You for Listening - Hurt
-------------------------------------------------------------------------------
*This was tabbed using Courier New 10 pt font.

*This is a work in progress, but I thought somebody might appreciate what I've
been able to get down in what little spare time I have.  I will update this as
I have time.  Enjoy!

Tuning: Drop D

_______Guitars_______
Gtr.   I = Slightly Dirty Electric
Gtr.  II = Slightly Dirty Electric
Gtr. III = Dirty Electric
Gtr.  IV = Dirty Electric
			
| /  Slide up			
| \  Slide down			
| h  Hammer-on			
| b  Bend			
| r  Release
| p  Pull-off
| ~  Vibrato
| +  Harmonic
| x  Mute note
| *  Stacato
|( ) Let ring

                                                                         Gtr. I
                                                           x2
e|------------------|--------------------|-------------------|-------------------|
B|------------------|--------------------|-------------------|-------------------|
G|-----------0------|---------0---2------|(0)----------------|-------------------|
D|-----4---4---4----|-------2---2--------|-3/5-5-5p4---------|-------------------|
A|---2---2----------|-0-2-3--------------|------------7-5----|-------------------|
D|-2----------------|--------------------|-------------------|-------------------|

                                                                         Gtr. I
                                                                               
e|-------------------|-3-----------------|-------------------|-3--------------3--|
B|-------------------|-3-----------------|-------------------|-3--------------3--|
G|-4-----------------|-5-----------------|-4-----------------|-5--------------5--|
D|-4-----------------|-5-----------------|-4-----------------|-5--------------5--|
A|-2-----------------|-3-----------------|-2-----------------|-3-----------------|
D|-2-----------------|-3-----------------|-2-----------------|-3-----------------|
 |                                                                               |
 |                                                                       Gtr. II |
 |                                                                               |
e|-------------------|-------------------|-------------------|-------------------|
B|-------------------|-------------------|-------------------|-------------------|
G|-4-----------------|-5-----------------|-4-----------------|-------2/4\2p0--5--|
D|-4-----------------|-5-----------------|-4-----------------|------(0)-------5--|
A|-2-----------------|-3-----------------|-2-----------------|----------------3--|
D|-------------------|-------------------|-------------------|-------------------|



e|-------------------|-3-----------------|-------------------|-------------------|
B|-------------------|-3-----------------|-------------------|-------------------|
G|-4-----------------|-5-----------------|-4-----------------|-5/7-7--7--7-7-----|
D|-4-----------------|-5-----------------|-4-----------------|-5/7-7--7--7-7-----|
A|-2-----------------|-3-----------------|-2-----------------|-3/5-5--5--5-5-----|
D|-2-----------------|-3-----------------|-2-----------------|-3/5-5--5--5-5-----|
 |                                                                               |
 |                                                                       Gtr. II |
 |                                                                               |
e|-------------------|-------------------|-------------------|-------------------|
B|-------------------|-------------------|-------------------|-------------------|
G|-4-----------------|-5-----------------|-4-----------------|-------------------|
D|-4-----------------|-5-----------------|-4-----------------|-------------------|
A|-2-----------------|-3-----------------|-2-----------------|-------------------|
D|-------------------|-------------------|-------------------|-------------------|


                                                                               x2
e|-------------------|-------------------|-------------------|-------------------|
B|-------------------|-------------------|-------------------|-------------------|
G|-4-4-4-4---4-4-4-4-|-4---4--X-X--------|-5-5-5-5---5-5-5-5-|-5---5--X-X--------|
D|-4-4-4-4---4-4-4-4-|-4---4--X-X--------|-5-5-5-5---5-5-5-5-|-5---5--X-X--------|
A|-2-2-2-2---2-2-2-2-|-2---2--X-X--------|-3-3-3-3---3-3-3-3-|-3---3--X-X--------|
D|-2-2-2-2---2-2-2-2-|-2---2--X-X--------|-------------------|-------------------|
 |       *         *                             *         *                     |
 |                                                                               |
 |                                                                               |
e|-------------------|-------------------|-------------------|-------------------|
B|-------------------|-------------------|-------------------|-------------------|
G|-------------------|-------------------|-------------------|-------------------|
D|-------------------|-------------------|-------------------|-------------------|
A|-------------------|-------------------|-------------------|-------------------|
D|-------------------|-------------------|-------------------|-------------------|



e|-------------------|-------------------|-2-----------------|-3-----------------|
B|-------------------|-------------------|-2-----------------|-3-----------------|
G|-4-4-4-4---4-4-4-4-|-4-4-4--5--5-5---2-|-4-----------------|-5-----------------|
D|-4-4-4-4---4-4-4-4-|-4-4-4--5--5-5---2-|-4-----------------|-5-----------------|
A|-2-2-2-2---2-2-2-2-|-2-2-2--3--3-3---0-|-2-----------------|-3-----------------|
D|-2-2-2-2---2-2-2-2-|-2-2-2-------------|-2-----------------|-3-----------------|
 |                                                                               |
 |                                                                               |
 |                                                                               |
e|-------------------|-------------------|-------------------|-------------------|
B|-------------------|-------------------|-------------------|-------------------|
G|-------------------|-------------------|-------------------|-------------------|
D|-------------------|-------------------|-------------------|-------------------|
A|-------------------|-------------------|-------------------|-------------------|
D|-------------------|-------------------|-------------------|-------------------|


                                                                               x4
e|-------------------|-------------------|-------------------|-------------------|
B|-------------------|-------------------|-------------------|-------------------|
G|-------------------|-------------------|-------------------|-------------------|
D|-5----5----5--5-5--|-5-5-5--5---5-5----|-9----9----9--9-9--|-9-9-9--9---9-9----|
A|-5----5----5--5-5--|-5-5-5--5---5-5----|-9----9----9--9-9--|-9-9-9--9---9-9----|
D|-5----5----5--5-5--|-5-5-5--5---5-5----|-9----9----9--9-9--|-9-9-9--9---9-9----|
 |                                                                               |
 |                                                                               |
 |                                                                               |
e|-------------------|-------------------|-------------------|-------------------|
B|-------------------|-------------------|-------------------|-------------------|
G|-------------------|-------------------|-------------------|-------------------|
D|-------------------|-------------------|-------------------|-------------------|
A|-------------------|-------------------|-------------------|-------------------|
D|-------------------|-------------------|-------------------|-------------------|



e|-------------------|-------------------|-------------------|-------------------|
B|-------------------|-------------------|-------------------|-------------------|
G|-------------------|-------------------|-------------------|-------------------|
D|-------------------|-------------------|-------------------|-------------------|
A|-------------------|-------------------|-------------------|-------------------|
D|-------------------|-------------------|-------------------|-------------------|
 |                                                                               |
 |                                                                               |
 |                                                                               |
e|-------------------|-------------------|-------------------|-------------------|
B|-------------------|-------------------|-------------------|-------------------|
G|-------------------|-------------------|-------------------|-------------------|
D|-------------------|-------------------|-------------------|-------------------|
A|-------------------|-------------------|-------------------|-------------------|
D|-------------------|-------------------|-------------------|-------------------|

  Pre Solo

e|--3----------------|-3-----------------|-2-----------------|-0-----------------|
B|--5----------------|-5-----------------|-3-----------------|-2-----------------|
G|-------------------|-------------------|-------------------|-------------------|
D|-------------------|-------------------|-------------------|-------------------|
A|-------------------|-------------------|-------------------|-------------------|
D|-------------------|-------------------|-------------------|-------------------|

  1st Solo

e|-------------------------------------------------------------------------------|
B|-------------------------------------------------------------------------------|
G|-------7/9~~~~~~~---7h9-6--7p6~~~~~~~------------------------------------------|
D|-7h9-------------------------------------7--7h9-8/9~~~~~~~---7b8r7-5-7p5-------|
A|-------------------------------------------------------------------------7~~~~~|
D|-------------------------------------------------------------------------------|


e|-------------------------------------------------------------------------------|
B|-----------------------------------------------------------10-10-10/12\10------|
G|----------------------------------------------------7-9-12----------------12~~-|
D|-----5---------------------------------5---/7-9~~~-----------------------------|
A|-5h7---7p5--7~~~~~-5h7\------5--7~~~~------------------------------------------|
D|-------------------------7-5---------------------------------------------------|
                                                      * * * *

e|-------------------------------------------------------------------------------|
B|-10b12-10b12-10b12r10~~~---------------------------------------------------12-\|
G|------------------------------------------------------7/9~~~-7h9p7--10p9~~-12-\|
D|-------------------------------------------------------------------------------|
A|------------------------10-9-7--10-9-7-10-9-7--10-9-7--------------------------|
D|-------------------------------------------------------------------------------|

e|-------------------------------------------------------------------------------|
B|---------------------------------------------------------------15p14p12h14--12\|
G|-------------------------------------12-11-9--12-11-9-12-11-9---------------12\|
D|-----------------------------5~~~\---------------------------------------------|
A|-7-5----------5h7-----5/7~~~---------------------------------------------------|
D|-----7-5--5h7-----5h7----------------------------------------------------------|


e|-------------------------------------------------------------------------------|
B|-------------------------------------------------------------------------------|
G|-7-7h9-9-9-9p7-7---------------------------------------------9~~~~~~-7~~~-6~~~-|
D|-7-7h9-9-9-9p7-7-9-7\5-7--5h7~~~-5---------------------------------------------|
A|-----------------------------------5h7p5---------------5/7---------------------|
D|-----------------------------------------5---------5h7-------------------------|


e|-------------------|-------------------|-------------------|-------------------|
B|-9~~~~~~-7~~~-6~~~-|-9~~~~~~-7~~~-6~~~-|-------------------|-------------------|
G|-------------------|-------------------|-------------------|-------------------|
D|-------------------|-------------------|-------------------|-------------------|
A|-------------------|-------------------|-------------------|-------------------|
D|-------------------|-------------------|-------------------|-------------------|

  2nd Solo

e|-------------------|-------------------|-------------------|-------------------|
B|-------------------|-------------------|-------------------|-------------------|
G|-------------------|-----------In Progress-----------------|-------------------|
D|-------------------|-------------------|-------------------|-------------------|
A|-------------------|-------------------|-------------------|-------------------|
D|-------------------|-------------------|-------------------|-------------------|

==================================================================================
Добавлено: 28.02.2012
Другие материалы по этой песне:
  • Аккорды и текст

Страница создана 28.02.2012
http://primanota.ru/hurt/thank-you-for-listening-chords.htm
Привет, Гость.
Предлагаем пройти революционный курс по гитаре.
Подарок от PrimaNota.Ru, забирай!