PrimaNota.ru - самый крупный в мире бесплатный архив песенных текстов, аккордов, табулатур и нот


Hurt - House Of Cards - текст песни, таба, видео

Регистрация Запомнить меня
Войти через:  Facebook Google Twitter Vk Yandex Mail.ru

Hurt - House Of Cards - текст песни, таба, видео

Печатать
Просмотров: 430
Уроки эстрадного вокала в Санкт-Петербурге
intro
eb(-------------------)
bb(-------------------)
gb(-------------------)
db(--444/7-7/4-0-00-0-)
ab(--444/7-7/4-0-00-0-)
Db(--444/7-7/4-0-00-0-)

intro continued
eb(-----------------------)
bb(-----------------------)
gb(-----------------------)
db(--444/7-7/4-0-00-7-4p0-)
ab(--444/7-7/4-0-00-7-4p0-)
Db(--444/7-7/4-0-00-7-4p0-)

intro continued
eb(-------------------)
bb(-------------------)
gb(-------------------)
db(--444/7-7/4-0-00-0-)
ab(--444/7-7/4-0-00-0-)
Db(--444/7-7/4-0-00-0-)

intro continued
eb(-----------------------)
bb(-----------------------)
gb(-----------------------)
db(--444/7-7/4-0-00-7-4p0-)
ab(--444/7-7/4-0-00-7-4p0-)
Db(--444/7-7/4-0-00-7-4p0-)

verse x4
eb(-------------------)
bb(-------------------)
gb(-------------------)
db(--444/7-7/4-0-00-0-)
ab(--444/7-7/4-0-00-0-)
Db(--444/7-7/4-0-00-0-)
   pm..... ... . .. .

verse continued x4
eb(-------------------)
bb(-------------------)
gb(-------------------)
db(--444/7-7/4-0-00-0-)
ab(--444/7-7/4-0-00-0-)
Db(--444/7-7/4-0-00-0-)

chorus-1
eb(----------------------------)
bb(----------------------------)
gb(----------------------------)
db(--4-4444-44-44-4-4444-44-44-)
ab(--4-4444-44-44-4-4444-44-44-)
Db(--4-4444-44-44-4-4444-44-44-)

eb(----------------------------)
bb(----------------------------)
gb(---------------4-4444-44-44-)
db(--0-0000-00-00-4-4444-44-44-)
ab(--0-0000-00-00-2-2222-22-22-)
Db(--0-0000-00-00--------------)

verse x4
eb(-------------------)
bb(-------------------)
gb(-------------------)
db(--444/7-7/4-0-00-0-)
ab(--444/7-7/4-0-00-0-)
Db(--444/7-7/4-0-00-0-)
   pm..... ... . .. .

verse continued x4
eb(-------------------)
bb(-------------------)
gb(-------------------)
db(--444/7-7/4-0-00-0-)
ab(--444/7-7/4-0-00-0-)
Db(--444/7-7/4-0-00-0-)

chorus-2
eb(----------------------------)
bb(----------------------------)
gb(----------------------------)
db(--4-4444-44-44-4-4444-44-44-)
ab(--4-4444-44-44-4-4444-44-44-)
Db(--4-4444-44-44-4-4444-44-44-)

eb(----------------------------)
bb(----------------------------)
gb(---------------4-4444-44-44-)
db(--0-0000-00-00-4-4444-44-44-)
ab(--0-0000-00-00-2-2222-22-22-)
Db(--0-0000-00-00--------------)

eb(----------------------------)
bb(----------------------------)
gb(----------------------------)
db(--4-4444-44-44-4-4444-44-44-)
ab(--4-4444-44-44-4-4444-44-44-)
Db(--4-4444-44-44-4-4444-44-44-)

eb(----------------------------)
bb(----------------------------)
gb(---------------4-4444-44-44-)
db(--0-0000-00-00-4-4444-44-44-)
ab(--0-0000-00-00-2-2222-22-22-)
Db(--0-0000-00-00--------------)

eb(----------------------------)
bb(----------------------------)
gb(----------------------------)
db(--4-4444-44-44-4-4444-44-44-)
ab(--4-4444-44-44-4-4444-44-44-)
Db(--4-4444-44-44-4-4444-44-44-)

eb(----------------------------)
bb(----------------------------)
gb(---------------4-4444-44-44-)
db(--0-0000-00-00-4-4444-44-44-)
ab(--0-0000-00-00-2-2222-22-22-)
Db(--0-0000-00-00--------------)

eb(----------------------------)
bb(----------------------------)
gb(----------------------------)
db(--4-4444-44-44-4-4444-44-44-)
ab(--4-4444-44-44-4-4444-44-44-)
Db(--4-4444-44-44-4-4444-44-44-)

eb(----------------------------)
bb(----------------------------)
gb(---------------4-4444-44-44-)
db(--0-0000-00-00-4-4444-44-44-)
ab(--0-0000-00-00-2-2222-22-22-)
Db(--0-0000-00-00--------------)

bridge x6
eb(------------------------------------------------------)
bb(------------------------------------------------------)
gb(--6-4-6-4-6-4-6-4-6-7-6-4-6-4-6-7-6-4-6-4-6-7-6-4-6-4-)
db(------------------------------------------------------)
ab(------------------------------------------------------)
Db(------------------------------------------------------)
   pm. . . . . . . . . . . . . . . . . . . . . . . . . .

bridge guitar 2
eb(-----------------------------------------)
bb(--7--3-5-7b--3-5-------------------------)
gb(--6--2-4-6---2-4-------------------------)
db(--4--0-2-4---0-2-4-4-4-4-4-4-0-0-0-2-2-2-)
ab(--4--0-2-4---0-2-4-4-4-4-4-4-0-0-0-2-2-2-)
Db(--4--0-2-4---0-2-4-4-4-4-4-4-0-0-0-2-2-2-)
                  pm. . . . . . . . . . . .

bridge guitar 2 continued
eb(--------------------------------------)
bb(--------------------------------------)
gb(--------------------------------------)
db(--4-4-4-44-4-4-4-44-4-4-4-44-4-4-4-44-)
ab(--4-4-4-44-4-4-4-44-4-4-4-44-4-4-4-44-)
Db(--4-4-4-44-4-4-4-44-4-4-4-44-4-4-4-44-)
   pm. . . .. . . . .. . . . .. . . . ..

chorus-3
eb(----------------------------)
bb(----------------------------)
gb(----------------------------)
db(--4-4444-44-44-4-4444-44-44-)
ab(--4-4444-44-44-4-4444-44-44-)
Db(--4-4444-44-44-4-4444-44-44-)

eb(----------------------------)
bb(----------------------------)
gb(---------------4-4444-44-44-)
db(--0-0000-00-00-4-4444-44-44-)
ab(--0-0000-00-00-2-2222-22-22-)
Db(--0-0000-00-00--------------)

eb(----------------------------)
bb(----------------------------)
gb(----------------------------)
db(--4-4444-44-44-4-4444-44-44-)
ab(--4-4444-44-44-4-4444-44-44-)
Db(--4-4444-44-44-4-4444-44-44-)

eb(----------------------------)
bb(----------------------------)
gb(---------------4-4444-44-44-)
db(--0-0000-00-00-4-4444-44-44-)
ab(--0-0000-00-00-2-2222-22-22-)
Db(--0-0000-00-00--------------)

eb(----------------------------)
bb(----------------------------)
gb(----------------------------)
db(--4-4444-44-44-4-4444-44-44-)
ab(--4-4444-44-44-4-4444-44-44-)
Db(--4-4444-44-44-4-4444-44-44-)

eb(----------------------------)
bb(----------------------------)
gb(---------------4-4444-44-44-)
db(--0-0000-00-00-4-4444-44-44-)
ab(--0-0000-00-00-2-2222-22-22-)
Db(--0-0000-00-00--------------)

eb(----------------------------)
bb(----------------------------)
gb(----------------------------)
db(--4-4444-44-44-4-4444-44-44-)
ab(--4-4444-44-44-4-4444-44-44-)
Db(--4-4444-44-44-4-4444-44-44-)
   pm. .... .. .. . .... .. ..

eb(----------------------------)
bb(----------------------------)
gb(---------------4-4444-44-44-)
db(--0-0000-00-00-4-4444-44-44-)
ab(--0-0000-00-00-2-2222-22-22-)
Db(--0-0000-00-00--------------)

outro
eb(--------)
bb(--------)
gb(--------)
db(--4-7-0-)
ab(--4-7-0-)
Db(--4-7-0-)
Добавлено: 24.03.2012
Другие материалы по этой песне:
  • Аккорды и текст

Страница создана 24.03.2012
http://primanota.ru/hurt/house-of-cards-chords.htm
Привет, Гость.
Предлагаем пройти революционный курс по гитаре.
Подарок от PrimaNota.Ru, забирай!