PrimaNota.ru - самый крупный в мире бесплатный архив песенных текстов, аккордов, табулатур и нот


Hurt - Loded - текст песни, таба, видео

Регистрация Запомнить меня
Войти через:  Facebook Google Twitter Vk Yandex Mail.ru

Hurt - Loded - текст песни, таба, видео

Печатать
Просмотров: 129
Hurt - Loded
Track 7 off of Vol. 2

Tuning - Drop D

Intro - 4x
E|------------------------------------| 
B|------------------------------------| 
G|------------------------------------|
D|---8-5-0-8-5-0-8-5-0-8-5-0-8-777----| 
A|xx-8-5-0-8-5-0-8-5-0-8-5-0-8-777----|
D|xx-8-5-0-8-5-0-8-5-0-8-5-0-8-777----| 

Verse - 4x - PM
E|----------------------| 
B|----------------------| 
G|----------------------|
D|----------------------| 
A|00--000--012121212----|
D|00--000--012121212----| 

Verse - Part 2 - PM - Dist.
E|---------------------------------------------------------------| 
B|---------------------------------------------------------------| 
G|---------------------------------------------------------------|
D|---------------------------------------------------------------| 
A|------------------------------(3x)-----------------------------|
D|8-5-0-8-5-0-8-5-0-8-5-0-8-777--------8-5-0-8-5-0-8-5-0-8-5-0-7-| 
                                              Slight bend -----^
Verse - Part 3 - 2x - Clean
E|------------------------------------------------------------| 
B|------------------------------------------------------------| 
G|------------------------------------------------------------|
D|8-5-0-8-5-0-8-5-0-8-5-0-8-777-7-4-0-7-4-0-7-4-0-7-4-0-7-4-0-| 
A|------------------------------------------------------------|
D|------------------------------------------------------------| 

Verse - Part 4 - 2x - Clean
E|------------------------------------------------------------| 
B|------------------------------------------------------------| 
G|------------------------------------------------------------|
D|0-5-8-0-5-8-0-5-8-0-5-8-8-777-0-4-7-0-4-7-0-4-7-0-4-7-0-4-7-| 
A|------------------------------------------------------------|
D|------------------------------------------------------------| 

Chorus - 2x - Dist
Strum thru these chords
E|-------------------------------------| 
B|-------------------------------------| 
G|-------------------------------------|
D|xx-8----7-----0---3----8----10---0---| 
A|xx-8----7-----0---3----8----10---0---|
D|xx-8----7-----0---3----8----10---0---| 

Post Chorus - 2x
Palm Mute on and off….not tabbing the whole part out…too lazy right now.
Just listen…..very easy.
E|--------------------------| 
B|--------------------------| 
G|--------------------------|
D|8----10---0----8--10---0--| 
A|8----10---0----8--10---0--|
D|8----10---0----8--10---0--| 

Play Intro 4x

Verse - Part 5 -4x - PM
E|-------------------------| 
B|-------------------------| 
G|-------------------------|
D|-------------------------| 
A|00-0-000-0-0-------------|
D|00-0-000-0-0-------------| 

Guitar 1 - Play Verse Part 3 2x Alone

Then…

Outro - Part 1
Guitar 1 - Play Verse Part 4 1.5 times with 
Guitar 2 - 1x - PM
E|------------------------------------------| 
B|------------------------------------------| 
G|------------------------------------------|
D|------------------------------------------| 
A|88-8-888-8--00-0-000-0---88-8-888-8--0----|
D|88-8-888-8--00-0-000-0---88-8-888-8--0----| 


Outro - Part 2- 2x
E|------------------------------------------------------------------------| 
B|------------------------------------------------------------------------| 
G|------------------------------------------------------------------------|
D|---8---7---0---3----8---10---0-10-12-0-10-12-0-10-12-0-10-12-0-12-10-10-| 
A|xx-8---7---0---3----8---10---0-10-12-0-10-12-0-10-12-0-10-12-0-12-10-10-|
D|xx-8---7---0---3----8---10---0-10-12-0-10-12-0-10-12-0-10-12-0-12-10-10-| 

Outro - Part 3 - 1x
E|--------------------------------------------| 
B|--------------------------------------------| 
G|--------------------------------------------|
D|-8--8---8---10----0---8--7--0---3---8---10--| 
A|-8--0---8---10----0---8--7--0---3---8---10--|
D|-8--0---8---10----0---8--7--0---3---8---10--|
Добавлено: 23.07.2012
Другие материалы по этой песне:
  • Аккорды и текст

Страница создана 23.05.2012
http://primanota.ru/hurt/loded-chords.htm
Привет, Гость.
Предлагаем пройти революционный курс по гитаре.
Подарок от PrimaNota.Ru, забирай!