PrimaNota.ru - самый крупный в мире бесплатный архив песенных текстов, аккордов, табулатур и нот


Homestuck - Megalovania - таба, видео

Регистрация Запомнить меня
Войти через:  Facebook Google Twitter Vk Yandex Mail.ru

Homestuck - Megalovania - таба, видео

Печатать
Просмотров: 98
Artist: Homestuck
Song: MeGaLoVania
Album: Homestuck Volume 6: Heir Transparent
Tabbed by: gustavoaraujo999@hotmail.com

**This is one goddamn complicated song. If you just want a quick way to play it, jump to the last track.
**Some parts are mutually exclusive between speakers, but most of them are just lower on the other one.

Resources used:
**Second Tab Pro.
**The only guitar cover on youtube.
**Earthbound's original track.
**There are tabs by Tensei on the MSPA Forum's "Sheet Music" Thread. I didn't like them very much though.

**Edit 05/05/2015 - Changed some placements, minor corrections.
**Edit 25/06/2015 - Complete rework of the tab. Now the old one is the last track.
**Edit 14/07/2015 - Minor corrections.

Tracks:

1.
GUITAR ONE - RIGHT SPEAKER
SYNTH ONE - RIGHT SPEAKER

2.
GUITAR TWO - LEFT SPEAKER
SYNTH TWO - LEFT SPEAKER

3.
ONLY ONE GUITAR (THE WAY I PLAY BY MYSELF)




=====================================================================================
============================= TRACK ONE - RIGHT SPEAKER =============================
=====================================================================================


============================ GUITAR ONE - RIGHT SPEAKER =============================
 
== Intro ==
0:00
e|------|------|--------------|
B|------|------|--------------|
G|------|------|--------------|
D|-3----|-4----|-9>-----------|
A|-3----|-4----|-9>-(dive)----|
E|-1----|-2----|-7>-----------|

== Verse ==
0:30
e|-------17--------------------------|-------17--------------15----------|
B|----------17--15b16-15-13----13-15-|----------17--15b16-15----17-16-15-|
G|-14-14--------------------14-------|-12-12-----------------------------|
D|-----------------------------------|-----------------------------------|
A|-----------------------------------|-----------------------------------|
E|-----------------------------------|-----------------------------------|

e|-------17----------------------------------------------------------------|
B|----------17--15b16-15-13----13-15--16-15-13-15--13----13-13-------------|
G|--------------------------14------------------------14--------16--14--12-|
D|-16-16-------------------------------------------------------------------|
A|-------------------------------------------------------------------------|
E|-------------------------------------------------------------------------|

== Solo 1 ==
0:56
e|-------------------------------------------|-----------------------------------|
B|-------------------------------------------|-----------------------------------|
G|-------------------------------------------|---------12------------------------|
D|-10----10-12-13-12-10----13p12p10----10-12-|-1313-14------14-13-12-------------|
A|----12----------------12---------h12-------|-----------------------15-12-14-15-|
E|-------------------------------------------|-----------------------------------|

e|--------------------|------------------------------------------------|
B|--------------------|------------------------------------------------|
G|----------12~---14~-|----------------------171717-16161616-14141414--|
D|-12~--14~-----------|-141414-151515-171717---------------------------|
A|--------------------|------------------------------------------------|
E|--------------------|------------------------------------------------|

e|------------------15b17br15------19b21-21--\-\-\----------------|
B|-17b18br17-15---------------17----------------------------------|
G|------------------------------------------------------14>-dive--|
D|------------------------------------------------19--------------|
A|----------------------------------------------------------------|
E|----------------------------------------------------------------|

== Outro 1 == 
1:25
e|-------17-----------20-19-17-15-|-------17--------------------------|
B|----------17-15b16--------------|----------17--15b16-15-13----13-15-|
G|-14-14--------------------------|-14-14--------------------14-------|
D|--------------------------------|-----------------------------------|
A|--------------------------------|-----------------------------------|
E|--------------------------------|-----------------------------------|

e|-------17-----------20-19-17-15-|-------17--------------------------|
B|----------17-15b16--------------|----------17--15b16-15-13----13-15-|
G|-14-14--------------------------|-14-14--------------------14-------|
D|--------------------------------|-----------------------------------|
A|--------------------------------|-----------------------------------|
E|--------------------------------|-----------------------------------|

e|-------17-----------------------|-----------------------------------|
B|----------17-15b16-13----13\----|-----------------------------------|
G|-14-14----------------14--------|-------17--16--14---17-----17~~~~>-|
D|--------------------------------|--15-------------------------------|
A|--------------------------------|-----------------------------------|
E|--------------------------------|-----------------------------------|

== Verse ==
1:56
e|-------17--------------------------|-------17--------------15----------|
B|----------17--15b16-15-13----13-15-|----------17--15b16-15----17-16-15-|
G|-14-14--------------------14-------|-12-12-----------------------------|
D|-----------------------------------|-----------------------------------|
A|-----------------------------------|-----------------------------------|
E|-----------------------------------|-----------------------------------|

e|-------17--------------------------------------------------------------|
B|----------17--15b16-15-13----13-15--16-15-13-15--13----13-13-----------|
G|--------------------------14------------------------14-----------------|
D|-16-16-----------------------------------------------------------------|
A|-----------------------------------------------------------------------|
E|-----------------------------------------------------------------------|

== Solo 2 == 
2:05
e|--------------------------|----------------------------------|
B|----13-----------13-------|--------------16----15----13------|
G|-------14--12-14----12-14-|-12-12-14-12-----12----12---------|
D|--------------------------|----------------------------------|
A|-12-----------------------|----------------------------------|
E|--------------------------|----------------------------------|

e|-------------------15b17---------------------12--------------|
B|----------17-15-17-------17-15-15b17-15-13------15-13--12-13-|
G|----14-14----------------------------------------------------|
D|-------------------------------------------------------------|
A|-12----------------------------------------------------------|
E|-------------------------------------------------------------|

2:12
e|-------15-15-------15-15-17-15--15-17-15---20--17-15-17\----------------------|
B|----------------------------------------------------------17-16-15-0----------|
G|-14-12-------14-12-------------------------------------------------0----------|
D|---------------------------------------------------------------------17-16-15-|
A|------------------------------------------------------------------------------|
E|------------------------------------------------------------------------------|

e|----------------------------------17---------------------------|
B|----17-16-15----------17--15-----------------------------------|
G|-14----------17-14-16---------17------16-17-16-17--------------|
D|---------------------------------------------------------------|
A|---------------------------------------------------------------|
E|---------------------------------------------------------------|

2:20
e|-151617-15-17-15-15-17-17-17-17-----------------------------22-|
B|-------------------------------------------------22-20-19------|
G|---------------------------------------------------------------|
D|----------------------------------17-17--16-17-----------------|
A|---------------------------------------------------------------|
E|---------------------------------------------------------------|

e|------------------------15-15-17-19-17-15--15-17-15------------|
B|-17-15------17-15-----------------------------------17-15\-----|
G|-------17---------17-------------------------------------------|
D|---------------------------------------------------------------|
A|---------------------------------------------------------------|
E|---------------------------------------------------------------|

== Outro 2 ==
2:33
e|--------------------|
B|--------------------|
G|-14---16---17---19--|
D|--------------------|
A|--------------------|
E|--------------------|








=============================== SYNTH - RIGHT SPEAKER ==============================

== Main Riff ==
0:14
e|------------------------|------------------------|
B|------------------------|------------------------|
G|------------------------|------------------------|
D|-----7------------------|-----7------------------|
A|-------7---6-5-33-0-3-5-|-------7---6-5-33-0-3-5-|
E|-5-5--------------------|-5-5--------------------|

e|------------------------|------------------------|
B|------------------------|------------------------|
G|------------------------|------------------------|
D|-----7------------------|-----7------------------|
A|-------7---6-5-33-0-3-5-|-------7---6-5-33-0-3-5-|
E|-1-1--------------------|-3-3--------------------|

e|------------------------|------------------------|
B|------------------------|------------------------|
G|------------------------|------------------------|
D|-----7------------------|-----7------------------|
A|-------7---6-5-33-0-3-5-|-------7---6-5-33-0-3-5-|
E|-5-5--------------------|-3-3--------------------|

e|------------------------|------------------------|
B|------------------------|------------------------|
G|------------------------|------------------------|
D|-----7------------------|-----7------------------|
A|-------7---6-5-33-0-3-5-|-------7---6-5-33-0-3-5-|
E|-2-2--------------------|-1-1--------------------|

== Verse ==
0:38
e|---------------------|-------------------------------------|
B|-13-1313-13-13-------|-13-1313--15-b16-15-13----13-15------|
G|---------------14-14-|-----------------------14------------|
D|---------------------|-------------------------------------|
A|---------------------|-------------------------------------|
E|---------------------|-------------------------------------|

e|------------------15-----17-17-17----17-15-|
B|-13-1313-15-16-17----17-----------17-------|
G|-------------------------------------------|
D|-------------------------------------------|
A|-------------------------------------------|
E|-------------------------------------------|

e|---------------------|-------------------------------------|
B|-13-1313-13-13-------|-13-1313--15-b16-15-13----13-15------|
G|---------------14-14-|-----------------------14------------|
D|---------------------|-------------------------------------|
A|---------------------|-------------------------------------|
E|---------------------|-------------------------------------|

e|-----------------------------------------------------------------------------|
B|-----------------------not sure about this--------------------------13-12----|
G|--------------------------------------------------------------12-14----------|
D|-141414-121212---------------121212------------------------15----------------|
A|---------------151515-141414--------151515-141414-121212---------------------|
E|-----------------------------------------------------------------------------|

== Solo 1 ==
0:56
e|-------------------------------------------|-----------------------------------|
B|-------------------------------------------|-----------------------------------|
G|-------------------------------------------|---------12------------------------|
D|-10----10-12-13-12-10----13p12p10----10-12-|-1313-14------14-13-12-------------|
A|----12----------------12---------h12-------|-----------------------15-12-14-15-|
E|-------------------------------------------|-----------------------------------|

e|----------------------------|-----------------------------------------------|
B|----------------------------|-----------------------------------------------|
G|-------12-14-14-------------|----------------------171717-16161616-14141414-|
D|-12-14----------14-12----12-|-101010-121212-141414--------------------------|
A|----------------------15----|-----------------------------------------------|
E|----------------------------|-----------------------------------------------|

e|-------------------------------------------------------------------------|
B|-------------------------------------1717171717171717\\\---88888888\\\\--|
G|--16161616-17171717-1919191-16161616-------------------------------------|
D|-------------------------------------------------------------------------|
A|-------------------------------------------------------------------------|
E|-------------------------------------------------------------------------|








=====================================================================================
============================ TRACK TWO - LEFT SPEAKER ===============================
=====================================================================================


============================ GUITAR TWO - LEFT SPEAKER ============================== 

== Solo 1 ==
0:56
e|-------------------------------------------|-----------------------------------|
B|-------------------------------------------|-----------------------------------|
G|-------------------------------------------|---------12------------------------|
D|-10----10-12-13-12-10----13p12p10----10-12-|-1313-14------14-13-12-------------|
A|----12----------------12---------h12-------|-----------------------15-12-14-15-|
E|-------------------------------------------|-----------------------------------|

e|--------------------|------------------------------------------------|
B|--------------------|------------------------------------------------|
G|----------12~---14~-|----------------------171717-16161616-14141414--|
D|-12~--14~-----------|-141414-151515-171717---------------------------|
A|--------------------|------------------------------------------------|
E|--------------------|------------------------------------------------|

e|------------------15b17br15------19b21-21--\-\-\----------------|
B|-17b18br17-15---------------17----------------------------------|
G|------------------------------------------------14----14>-dive--|
D|----------------------------------------------------------------|
A|----------------------------------------------------------------|
E|----------------------------------------------------------------|

== Outro 1 == 
 1:27
e|----------------|--------------------------------|--------------------------------|
B|13-12--13-15----|--------------------------------|--------------------------------|
G|-------------12-|-------14-----------------------|-------14-----------------------|
D|----------------|----------14--13-12-10----10-12-|----------14--13-12-10----10-12-|
A|----fade in-----|-12-12-----------------12-------|-12-12-----------------12-------|
E|----------------|--------------------------------|--------------------------------|

e|---------------------------------------|---------------------------------------|
B|---------------------------------------|---------------------------------------|
G|------14-------------------------------|--------????????????-------------------|
D|------------14----13--12-10------10-12-|---------------------------------------|
A|-1212--1212----12-------------12-------|---------------------------------------|
E|---------------------------------------|---------------------------------------|

e|------------------------------------15--171716161515141413131212\\\\\\\\\\\\\--|
B|----------------15--------------15---------------------------------------------|
G|-14-14-16-16-17----17-xx--16-17------------------------------------------------|
D|-------------------------------------------------------------------------------|
A|-------------------------------------------------------------------------------|
E|-------------------------------------------------------------------------------|

== Solo 2 == 
2:12
e|----------------------------------------------------------------------15-14-13|
B|-------------------------10-13--13-12-13---15--12-15-13-----------------------|
G|-------12-12-------12-12------------------------------------------------------|
D|----------------------------------------------------------14-12----14---------|
A|-10-10-------10-10----------------------------------------------15------------|
E|------------------------------------------------------------------------------|

e|----17----17--17-15-----------------------------------------|
B|-17----17-----------17-----------12-13-/-20-----------------|
G|-----------------------14--12-14----------------------------|
D|------------------------------------------------------------|
A|------------------------------------------------------------|
E|------------------------------------------------------------|

2:20
e|-----------------12----------|-----------------12-----------|
B|-17-15--------------13-15-13-|-13-12-13-----------13-15-13--|
G|-------17--12-12-------------|-----------12-12--------------|
D|-----------------------------|------------------------------|
A|-----------------------------|------------------------------|
E|-----------------------------|------------------------------|

e|------------------------------------------------------------|
B|----------------------15b17-b17-b17-b17--13h15p13-----------|
G|-14-12-----14-12----------------------------------12--------|
D|-------14--------14-----------------------------------------|
A|------------------------------------------------------------|
E|------------------------------------------------------------|

== Outro 2 ==
e|-------------------------------------|---------------------------------------------|
B|-------------------------------------|---------------------------------------------|
G|---------12b14-14-14-12b14br12-10----|-10-10----10----10-12b14-14-14-14-14br12--10-|
D|------10-12b14-14-14-12b14br12-10----|-10-10----10----10-12b14-14-14-14-14br12--10-|
A|-(12)-----------------------------12-|-------12----12------------------------------|
E|-------------------------------------|---------------------------------------------|

e|-----------------------------------------------------------|
B|-----10--------10-12b13-------13-15b16---15b16-15b16-15b16-|
G|-/12-------/12------------/14------------------------------|
D|-----------------------------------------------------------|
A|-----------------------------------------------------------|
E|-----------------------------------------------------------|




=============================== SYNTH - LEFT SPEAKER ==============================

== Verse ==
0:46
e|------------------|---------------------------------------------------------|
B|------------------|---------------------------------------------------------|
G|-1616161616161616-|---------------------------------------------12-14-------|
D|---fade in--------|-14-1414-14-14-12-12----14-1414-14-12-14--12-------14\12-|
A|------------------|---------------------------------------------------------|
E|------------------|---------------------------------------------------------|

e|------------------------------------------------------------------------15151515--|
B|---------------------------------------------------------------------13-----------|
G|-141414----------------------121212----------------------------12-14--------------|
D|--------141414-121212-101010--------121212-101010-9999----1414--------------------|
A|----------------------------------------------------------------------------------|
E|----------------------------------------------------------------------------------|









============================================================================================================
========================= TRACK THREE - ONLY ONE GUITAR (THE WAY I PLAY BY MYSELF) =========================
============================================================================================================

== Intro ==
0:00 - guitar one
e|------|------|--------------|
B|------|------|--------------|
G|------|------|--------------|
D|-3----|-4----|-9>-----------|
A|-3----|-4----|-9>-(dive)----|
E|-1----|-2----|-7>-----------|

== Main Riff ==
0:14 - synth one
e|------------------------|------------------------|
B|------------------------|------------------------|
G|------------------------|------------------------|
D|-----7------------------|-----7------------------|
A|-------7---6-5-33-0-3-5-|-------7---6-5-33-0-3-5-|
E|-5-5--------------------|-5-5--------------------|

e|----------|----------------------------------|
B|----------|----------------------------------|
G|----------|----------------------------------|
D|----------|----------------------------------|
A|----------|----------------------------------|
E|-1---3----|-5-------3-------2-------1---3----|


== Verse ==
0:30 - guitar one
e|-------17--------------------------|-------17--------------15----------|
B|----------17--15b16-15-13----13-15-|----------17--15b16-15----17-16-15-|
G|-14-14--------------------14-------|-12-12-----------------------------|
D|-----------------------------------|-----------------------------------|
A|-----------------------------------|-----------------------------------|
E|-----------------------------------|-----------------------------------|

e|-------17----------------------------------------------------------------|
B|----------17--15b16-15-13----13-15--16-15-13-15--13----13-13-------------|
G|--------------------------14------------------------14--------16--14--12-|
D|-16-16-------------------------------------------------------------------|
A|-------------------------------------------------------------------------|
E|-------------------------------------------------------------------------|

0:38 - synth one
e|---------------------|-------------------------------------|
B|-13-1313-13-13-------|-13-1313--15-b16-15-13----13-15------|
G|---------------14-14-|-----------------------14------------|
D|---------------------|-------------------------------------|
A|---------------------|-------------------------------------|
E|---------------------|-------------------------------------|

e|------------------15-----17-17-17----17-15-|
B|-13-1313-15-16-17----17-----------17-------|
G|-------------------------------------------|
D|-------------------------------------------|
A|-------------------------------------------|
E|-------------------------------------------|

e|---------------------|-------------------------------------|
B|-13-1313-13-13-------|-13-1313--15-b16-15-13----13-15------|
G|---------------14-14-|-----------------------14------------|
D|---------------------|-------------------------------------|
A|---------------------|-------------------------------------|
E|---------------------|-------------------------------------|

0:46 - synth two
e|------------------|---------------------------------------------------------|
B|------------------|---------------------------------------------------------|
G|-1616161616161616-|---------------------------------------------12-14-------|
D|---fade in--------|-14-1414-14-14-12-12----14-1414-14-12-14--12-------14\12-|
A|------------------|---------------------------------------------------------|
E|------------------|---------------------------------------------------------|

e|----------------------------------------------------------------------------------|
B|---------------------------------------------------------------------13-/--20-----|
G|-141414----------------------121212-----------------------1010-12-14--------------|
D|--------141414-121212-101010--------121212-101010-999-----------------------------|
A|----------------------------------------------------------------------------------|
E|----------------------------------------------------------------------------------|

== Solo 1 ==
0:56 - guitar one + synth one
e|-------------------------------------------|-----------------------------------|
B|-------------------------------------------|-----------------------------------|
G|-------------------------------------------|---------12------------------------|
D|-10----10-12-13-12-10----13p12p10----10-12-|-1313-14------14-13-12-------------|
A|----12----------------12---------h12-------|-----------------------15-12-14-15-|
E|-------------------------------------------|-----------------------------------|

e|----------------------------|-----------------------------------------------|
B|----------------------------|-----------------------------------------------|
G|-------12-14-14-------------|----------------------171717-16161616-14141414-|
D|-12-14----------14-12----12-|-101010-121212-141414--------------------------|
A|----------------------15----|-----------------------------------------------|
E|----------------------------|-----------------------------------------------|

e|------------------15b17br15------19b21-21--\-\-\----------------|
B|-17b18br17-15---------------17----------------------------------|
G|------------------------------------------------------14>-dive--|
D|------------------------------------------------19--------------|
A|----------------------------------------------------------------|
E|----------------------------------------------------------------|

== Outro 1 == 
1:25 - guitar one
e|-------17-----------20-19-17-15-|-------17--------------------------|
B|----------17-15b16--------------|----------17--15b16-15-13----13-15-|
G|-14-14--------------------------|-14-14--------------------14-------|
D|--------------------------------|-----------------------------------|
A|--------------------------------|-----------------------------------|
E|--------------------------------|-----------------------------------|

e|-------17-----------20-19-17-15-|-------17--------------------------|
B|----------17-15b16--------------|----------17--15b16-15-13----13-15-|
G|-14-14--------------------------|-14-14--------------------14-------|
D|--------------------------------|-----------------------------------|
A|--------------------------------|-----------------------------------|
E|--------------------------------|-----------------------------------|

e|-------17-----------------------|-----------------------------------|
B|----------17-15b16-13----13\----|-----------------------------------|
G|-14-14----------------14--------|-------17--16--14---17-----17~~~~--|
D|--------------------------------|--15-------------------------------|
A|--------------------------------|-----------------------------------|
E|--------------------------------|-----------------------------------|

== Verse ==

e|----------|
B|----------|
G|----------|
D|----------|
A|----------|
E|-1---3----|

1:56 - guitar one
e|-------17--------------------------|-------17--------------15----------|
B|----------17--15b16-15-13----13-15-|----------17--15b16-15----17-16-15-|
G|-14-14--------------------14-------|-12-12-----------------------------|
D|-----------------------------------|-----------------------------------|
A|-----------------------------------|-----------------------------------|
E|-----------------------------------|-----------------------------------|

e|-------17--------------------------------------------------------------|
B|----------17--15b16-15-13----13-15--16-15-13-15--13----13-13-----------|
G|--------------------------14------------------------14-----------------|
D|-16-16-----------------------------------------------------------------|
A|-----------------------------------------------------------------------|
E|-----------------------------------------------------------------------|

== Solo 2 == 
2:05 - guitar one
e|--------------------------|----------------------------------|
B|----13-----------13-------|--------------16----15----13------|
G|-------14--12-14----12-14-|-12-12-14-12-----12----12---------|
D|--------------------------|----------------------------------|
A|-12-----------------------|----------------------------------|
E|--------------------------|----------------------------------|

e|-------------------15b17---------------------12--------------|
B|----------17-15-17-------17-15-15b17-15-13------15-13--12-13-|
G|----14-14----------------------------------------------------|
D|-------------------------------------------------------------|
A|-12----------------------------------------------------------|
E|-------------------------------------------------------------|

2:12 - guitar one
e|-------15-15-------15-15-17-15--15-17-15---20--17-15-17\----------------------|
B|----------------------------------------------------------17-16-15------------|
G|-14-12-------14-12-------------------------------------------------0----------|
D|---------------------------------------------------------------------17-16-15-|
A|------------------------------------------------------------------------------|
E|------------------------------------------------------------------------------|

e|---------------------------------------------------------------|
B|----17-16-15----------17--15---13--12-13-/-18b20---------------|
G|-14----------17-14-16------------------------------------------|
D|---------------------------------------------------------------|
A|---------------------------------------------------------------|
E|---------------------------------------------------------------|

2:20 - guitar one 
e|-151617-15-17-15-15-17-17-17-17-----------------------------22-|
B|-------------------------------------------------22-20-19------|
G|---------------------------------------------------------------|
D|----------------------------------17-17--16-17-----------------|
A|---------------------------------------------------------------|
E|---------------------------------------------------------------|

e|-------------------------------------------15-17-15------------|
B|-17-15------17-15-------15b17-b17-b17---------------17-15\-----|
G|-------17---------17-------------------------------------------|
D|---------------------------------------------------------------|
A|---------------------------------------------------------------|
E|---------------------------------------------------------------|

== Outro 2 == 
2:30 - guitar two
e|-------------------------------------|---------------------------------------------|
B|-------------------------------------|---------------------------------------------|
G|---------12b14-14-14-12b14br12-10----|-10-10----10----10-12b14-14-14-14-14br12--10-|
D|------10-12b14-14-14-12b14br12-10----|-10-10----10----10-12b14-14-14-14-14br12--10-|
A|-(12)-----------------------------12-|-------12----12------------------------------|
E|-------------------------------------|---------------------------------------------|

e|-----------------------------------------------------------|
B|-----10--------10-12b13-------13-15b16---15b16-15b16-15b16-|
G|-/12-------/12------------/14------------------------------|
D|-----------------------------------------------------------|
A|-----------------------------------------------------------|
E|-----------------------------------------------------------|

10 pages of text for a 3 minute song. All right.Sorry if this is too convoluted.
Comments and corrections are welcome. Thanks.
Добавлено: 28.11.2015
Другие материалы по этой песне:

Страница создана 21.07.2012
http://primanota.ru/homestuck/megalovania-chords.htm
Привет, Гость.
Предлагаем пройти революционный курс по гитаре.
Подарок от PrimaNota.Ru, забирай!