PrimaNota.ru - самый крупный в мире бесплатный архив песенных текстов, аккордов, табулатур и нот


Homestuck - Verdancy Baseline - бас-таба, видео

Регистрация Запомнить меня
Войти через:  Facebook Google Twitter Vk Yandex Mail.ru

Homestuck - Verdancy Baseline - бас-таба, видео

Печатать
Просмотров: 254
Verdancy Baseline:
G|-7---7---7---------7--7---7---------7--7--7--------7--7--7---------------| X2
D|9-9-8-8-7-7-------9-98-8-7-7-------9--8--7--------9--8--7----------------|
A|------------7777-------------7777----------777799----------779797--------|
E|-------------------------------------------------------------------------|

G|---------------7----------------7-----9---9---9-10-12-10-9-10p9h10p9-9---|
D|-7-7-10-7-7-10----7-7-10-7-7-10---7-7---7---7--------------------------7-|
A|-------------------------------------------------------------------------|
E|-------------------------------------------------------------------------|

G|--------9-10-12-------11-12-14-------9-10-12--------11-12-14-------------| 
D|-9-10-12-------9-10-12--------9-10-12--------9-10-12---------------------|
A|-------------------------------------------------------------------------|
E|-------------------------------------------------------------------------|

G|--------9-10-12-------11-12-14-------9-10-12--------11-12-14---16--------| 
D|-9-10-12-------9-10-12--------9-10-12--------9-10-12---------------------|
A|-------------------------------------------------------------------------|
E|-------------------------------------------------------------------------|

http://homestuck.bandcamp.com/track/verdancy-bassline
Добавлено: 18.06.2012
Другие материалы по этой песне:
  • Аккорды и текст

Страница создана 18.06.2012
http://primanota.ru/homestuck/verdancy-baseline-chords.htm
Привет, Гость.
Предлагаем пройти революционный курс по гитаре.
Подарок от PrimaNota.Ru, забирай!