PrimaNota.ru - самый крупный в мире бесплатный архив песенных текстов, аккордов, табулатур и нот


Homestuck - Beatdown - таба, видео

Регистрация Запомнить меня
Войти через:  Facebook Google Twitter Vk Yandex Mail.ru

Homestuck - Beatdown - таба, видео

Печатать
Просмотров: 240
Dirk's and Dave's Strife Music. Enjoy! 


E------6----4---------------4------------------------------------------|
B--------6----4--6--5--4--6---6---7-6-5-4-2-------2---4-6-4---6-5-4----|
G---3---------------------------------------2-3-------------5-------5--|
D----------------------------------------------------------------------|
A----------------------------------------------------------------------|
E----------------------------------------------------------------------|

E-4----------------------6----4---------------4------------------------|
B------7-6-5-4-------------6----4--6--5--4--6---6---7-6-5-4-2-------2--|
G--------------6-5-1-2-3--------------------------------------2-3------|
D----------------------------------------------------------------------|
A----------------------------------------------------------------------|
E----------------------------------------------------------------------|

E---------------------------5-8-9-6-4----------------9-----------------|
B-4-6-4---6-5-4---------4-7-----------6-4---------11---9-11------------|
G-------5-------5-2-3-5-------------------6-5---------------10---------|
D---------------------------------------------6-7----------------------|
A----------------------------------------------------------------------|
E----------------------------------------------------------------------|

E----------------------------------------------------------------------|
B-11-9---------9----------6-5-4------------------------4---------------|
G------10-8-10---8-10-6---------------6---------6--5-5---5-5-5-5-------|
D-------------------------------7-8-8---8-8-8-8------------------------|
A----------------------------------------------------------------------|
E----------------------------------------------------------------------|

E----------------------------------------------------------------------|
B-11-9---------9----------6-5-4------------------------4---------------|
G------10-8-10---8-10-6---------------6---------6--5-5---5-5-5-5-------|
D-------------------------------7-8-8---8-8-8-8------------------------|
A----------------------------------------------------------------------|
E----------------------------------------------------------------------|

E-8--9-8-6-8-----9-8---8-11--9-8-9-----8----9----8----6----5-----------|
B-------------6-------6------------6-----------------------------------|
G----------------------------------------------------------------------|
D----------------------------------------------------------------------|
A----------------------------------------------------------------------|
E----------------------------------------------------------------------|
Добавлено: 27.09.2013
Другие материалы по этой песне:

Страница создана 15.05.2012
http://primanota.ru/homestuck/beatdown-chords.htm
Привет, Гость.
Предлагаем пройти революционный курс по гитаре.
Подарок от PrimaNota.Ru, забирай!