PrimaNota.ru - самый крупный в мире бесплатный архив песенных текстов, аккордов, табулатур и нот


Homestuck - Verdancy - бас-таба, видео

Регистрация Запомнить меня
Войти через:  Facebook Google Twitter Vk Yandex Mail.ru

Homestuck - Verdancy - бас-таба, видео

Печатать
Просмотров: 92
Уроки эстрадного вокала в Санкт-Петербурге
-------------------------------------------------------------------------------
                             VERDANCY - Homestuck
-------------------------------------------------------------------------------

From [S] Jade: Open FreshJamz!
Homestuck by Andrew Hussie
Verdancy by Robert Blaker

                                                                   *  *  *
G|---7----7----7-----------7---7-----7----------7--7--7------------7--7--7------------|
D|--9-9--8-8--7-7---------9-9-8-8---7-7--------9--8--7------------9--8--7-------------| X2
A|-----------------7777------------------777--------------77799-------------779797----| 
E|------------------------------------------------------------------------------------|

G|------5-------5-5h7------5-------5-5h7------9---9-9-10-12--10--9--10-9-10-9--7------|
D|--7-7-----5-5--------7-7-----5-5--------7-7----7-7-----------------------------7----|
A|------------------------------------------------------------------------------------|
E|------------------------------------------------------------------------------------|

G|---------9-10-12-------12-14-15-------9-10-12-------12-15-17----|       --17--------| final note
D|--9-10-12-------9-10-12--------9-10-12-------9-10-12------------| X2    ------------|
A|----------------------------------------------------------------|       ------------|
E|----------------------------------------------------------------|       ------------|

| * do not let these notes ring out



| /  slide up
| \  slide down
| h  hammer-on
| p  pull-off
| ~  vibrato
| +  harmonic
| x  Mute note
======================================================================================
Добавлено: 28.11.2015
Другие материалы по этой песне:
  • Аккорды и текст

Страница создана 28.11.2015
http://primanota.ru/homestuck/verdancy-chords.htm
Привет, Гость.
Предлагаем пройти революционный курс по гитаре.
Подарок от PrimaNota.Ru, забирай!