PrimaNota.ru - самый крупный в мире бесплатный архив песенных текстов, аккордов, табулатур и нот


Homestuck - Vriskas Theme - таба, видео

Регистрация Запомнить меня
Войти через:  Facebook Google Twitter Vk Yandex Mail.ru

Homestuck - Vriskas Theme - таба, видео

Печатать
Просмотров: 250
Уроки эстрадного вокала в Санкт-Петербурге
Artist: Homestuck
Song: Vriska's Theme
Album: AlterniaBound
Tabbed by: gustavoaraujo999@hotmail.com

**Edit: 07/05/2015 - Corrections after looking at Radiation's Spider's Claw Tab.
**Edit: 08/05/2015 - Minor corrections.
**Edit: 17/07/2015 - Minor corrections.

0:00
e|-10-----------------------------------------------------------|
B|-10-----------------------------------------------------------|
G|------10-------------10--------------------------13----12-10--|
D|---------12----10-12----10-12-----------------------10--------|
A|----------------------------------14--12-14-12----------------|
E|--------------------------------------------------------------|

e|---------------------------------------------------------------13-----|
B|-10---------------------13--10---------------------------------x---13-|
G|----13-12-10---10----10---------13-12/13-12-10-------13-12-10--10-----|
D|------------------12--------------------------------------------------|
A|----------------------------------------------------------------------|
E|----------------------------------------------------------------------|


0:09
e|---------------------------10--------------------13--------13--|
B|-------13-13---------13-13----13---13-15-13------13--15-13-----|
G|-------12-12---------12-12-------------------------------------|
D|-12-10---------12-10-------------------------------------------|
A|---------------------------------------------------------------|
E|---------------------------------------------------------------|

e|-16-15-13---------------------------------------------------------------|
B|----------13---12-11-10----10-13----------------------------------------|
G|---------------------------------12-10-------------12b13-12-10-12-10----|
D|------------------------12--------------12-10-12---------------------10-|
A|------------------------------------------------------------------------|
E|------------------------------------------------------------------------|


0:19
e|-10-------------------------------------------10---------------|
B|-10---10---------------10------13---13-10-13-------------13----|
G|---------10---------10----10---12---------------------12-------|
D|--------------10-12--------------------------------12----------|
A|---------------------------------------------------------------|
E|---------------------------------------------------------------|

e|---------------------------------------10-------------------13-12--13--16-|
B|-10-13------------------13-10-13-10-13----13-9-----10-13------------------|
G|-------12-10------10-12------------------------10-------------------------|
D|---------------12---------------------------------------------------------|
A|--------------------------------------------------------------------------|
E|--------------------------------------------------------------------------|


0:27
e|---------------------------10-13---------------13----------------16-15-13-15-13-|
B|-------13-13---------13-13---------13-15-------13-15-13-------------------------|
G|-------12-12---------12-12---------------14-------------14----------------------|
D|-12-10---------12-10---------------------------------------15-12----------------|
A|--------------------------------------------------------------------------------|
E|--------------------------------------------------------------------------------|

e|---------------------------------------------------------------|
B|-10-13---------------------------------------------------------|
G|-------12-10-10-----------12b13-12-10--12-10-------------------|
D|----------------12-10-12---------------------10----------------|
A|---------------------------------------------------------------|
E|---------------------------------------------------------------|

0:35
Interlude
e|--------------------------------------------------------------|
B|-----------6--------------------------------------------------|
G|-------5-----5-4-3------------5-------------------------------|
D|---------7---------6----5-6-5---------------------------------|
A|-5-7-8--------------------------------------------------------|
E|--------------------------------------------------------------|

0:50
e|------------------------------------------------------------|
B|----15--15--------------------------------------------------|
G|----------------------10----------------------13---12-12-10-|
D|-12-------------10-12----10-12----10-10-12-10---------------|
A|------------------------------------------------------------|
E|------------------------------------------------------------|

e|-----------------------------------------------13-15-17>---------|
B|-----------------------------------------------------------------|
G|----------10---------13---12-12-10--12-10-9----------------------|
D|-10-12-------10--------------------------------------------------|
A|----------------12-----------------------------------------------|
E|-----------------------------------------------------------------|


1:10
e|-10----------------------------10--------------------------|
B|-10--------------------------------------------------------|
G|-----10-------------10-------------------------13----12-10-|
D|--------12----10-12----10-12----------------------10-------|
A|-----------------------------------12-14-12----------------|
E|-----------------------------------------------------------|

e|--------------------------------------------------------------|
B|-10-13------------------13-10---------------------------------|
G|-------12-10---10----10-------13-12/13-12-10--131210-9-10-----|
D|------------------12------------------------------------------|
A|--------------------------------------------------------------|
E|--------------------------------------------------------------|


1:18
e|---------------------------10-13---------------13----------------16-15-13-15-13-|
B|-------13-13---------13-13---------13-15-------13-15-13-------------------------|
G|-------12-12---------12-12---------------14-------------14----------------------|
D|-12-10---------12-10---------------------------------------15-12----------------|
A|--------------------------------------------------------------------------------|
E|--------------------------------------------------------------------------------|

e|--------------------------------------------------------------|
B|-10-9---------------------------------------------------------|
G|------12-10-10-----------12b13-12-10--12-10-------------------|
D|---------------12-10-12---------------------10----------------|
A|--------------------------------------------------------------|
E|--------------------------------------------------------------|


1:27
e|---------------------------10-13---------------13----------------16-15-13-15-13-|
B|-------13-13---------13-13---------13-15-------13-15-13-------------------------|
G|-------12-12---------12-12---------------14-------------14----------------------|
D|-12-10---------12-10---------------------------------------15-12----------------|
A|--------------------------------------------------------------------------------|
E|--------------------------------------------------------------------------------|

e|---------------------------------------------------------------|
B|-10-13---------------------------------------------------------|
G|-------12-10-10-----------12b13-12-10--12-10-------------------|
D|----------------12-10-12---------------------10----------------|
A|---------------------------------------------------------------|
E|---------------------------------------------------------------|

Добавлено: 28.11.2015
Другие материалы по этой песне:
  • Аккорды и текст

Страница создана 28.11.2015
http://primanota.ru/homestuck/vriskas-theme-chords.htm
Привет, Гость.
Предлагаем пройти революционный курс по гитаре.
Подарок от PrimaNota.Ru, забирай!