PrimaNota.ru - самый крупный в мире бесплатный архив песенных текстов, аккордов, табулатур и нот


Haste The Day - Walls Fears - таба, видео

Регистрация Запомнить меня
Войти через:  Facebook Google Twitter Vk Yandex Mail.ru

Haste The Day - Walls Fears - таба, видео

Печатать
Просмотров: 100
Haste The Day
"Walls & Fears"
When Everything Falls (2005)

This tab sounds about 100% right, except for the one part i left out on the bridge for 
second guitar. Ill get it shortly.

Things to know:
-. palm mute
-* pinch harmonic
-p pull off
-h hammer on
-~ let note ring

Tuning Drop C: C G C F A D


D:--------------------------:
A:--------------------------:
F:--------------------------:
C:-0-5-7-8-7-0--------------:
G:-0-5-7-8-7-0--------------:
C:-0-5-7-8-7-0-00-0-000-000-:
               .. . ... ...

D:----------------------------------------------------:
A:----------------------------------------------------:
F:----------------------------------------------------:
C:-0-5-7-8-7-----------------0-5-7-8-7-0--------------:
G:-0-5-7-8-7---------8-7-8*--0-5-7-8-7-0--------------:
C:-0-5-7-8-7-8-7-8-10--------0-5-7-8-7-0-00-0-000-000-:
                                         .. . ... ...


D:------------------------------------------------:
A:------------------------------------------------:
F:------------------------------------------------:
C:-0-5-7-8-7-12-12-9-10--0-5-7-8-7-0--------------:
G:-0-5-7-8-7-10-10-7--8--0-5-7-8-7-0--------------:
C:-0-5-7-8-7-------------0-5-7-8-7-0-00-0-000-000-:
                                     .. . ... ...

D:----------------------------------------------------:
A:----------------------------------------------------:
F:----------------------------------------------------:
C:-0-5-7-8-7-----------------0-5-7-8-7-0--------------:
G:-0-5-7-8-7---------8-7-8*--0-5-7-8-7-0--------------:
C:-0-5-7-8-7-8-7-8-10--------0-5-7-8-7-0-00-0-000-000-:
                                         .. . ... ...

D:------------------------------------:
A:------------------------------------:
F:------------------------------------:
C:-0-5-7-8-7-12-12-9-10--0-5-7-8-7-0~-:
G:-0-5-7-8-7-10-10-7--8--0-5-7-8-7-0~-:
C:-0-5-7-8-7-------------0-5-7-8-7-0~-:


Both        (x4)
D:-------------:
A:-------------:
F:-------------:
C:-------------:
G:-00-00-00-00-:
C:-00-00-00-00-:
   .. .. .. ..

D:----------------------------------------------------:
A:----------------------------------------------------:
F:----------------------------------------------------:
C:-0-5-7-8-7-0---------------0-5-7-8-7----------------:
G:-0-5-7-8-7-0---------------0-5-7-8-7---------8-7-8*-:
C:-0-5-7-8-7-0-00-0-000-000--0-5-7-8-7-8-7-8-10-------:
               .. . ... ...

D:----------------------------------------------------------------:
A:----------------------------------------------------------------:
F:----------------------------------------------------------------:
C:-0-5-7-8-7-0---------------0-5-7-8-7-12-12-9-10--10-10-9--9-9-7-:
G:-0-5-7-8-7-0---------------0-5-7-8-7-10-10-7--8---8--8-7--7-7-5-:
C:-0-5-7-8-7-0-00-0-000-000--0-5-7-8-7----------------------------:
               .. . ... ...

Guitar 1                                                            (x2)
D:---------------------------------------------------------------------:
A:---------------------------------------------------------------------:
F:---------------------------------------------------------------------:
C:-3-3p0-2p0-3p0-5p0-3p0-2h3p2-2-3p0-2p0-3p0-5p0-3p0-2h3p2-1010-9-99-7-:
G:-1---------------------------0----------------------------8-8-7-77-5-:
C:---------------------------------------------------------------------:

Guitar 2            (x2)
D:---------------------:
A:---------------------:
F:---------------------:
C:-8~--7~--1010-9-99-7-:
G:-8~--7~---8-8-7-77-5-:
C:-8~--7~--------------:


Both       (x8) (on 4th, 6th time
D:-------------:-----: Gtr 2 will
A:-------------:-----: play this
F:-------------:-----: on end).
C:-------------:-----:
G:-00-00-00-00-:-----:
C:-00-00-00-00-:-000-:
   .. .. .. ..   ...

Guitar 1
D:---------------------------------------:
A:---------------------------------------:
F:---------------------------------------:
C:-3p0-2p0-3p0-5p0-3p0-2h3p2-1010-9-99-7-:
G:----------------------------8-8-7-77-5-:
C:---------------------------------------:

Guitar 2
D:---------------------------------------:
A:---------------------------------------:
F:---------------------------------------:
C:---------------------------1010-9-99-7-:
G:----------------------------8-8-7-77-5-:
C:---------------------------------------:


Guitar 1                                                            (x3)
D:---------------------------------------------------------------------:
A:---------------------------------------------------------------------:
F:---------------------------------------------------------------------:
C:-3-3p0-2p0-3p0-5p0-3p0-2h3p2-2-3p0-2p0-3p0-5p0-3p0-2h3p2-1010-9-99-7-:
G:-1---------------------------0----------------------------8-8-7-77-5-:
C:---------------------------------------------------------------------:

Guitar 2            (x3)
D:---------------------:
A:---------------------:
F:---------------------:
C:-8~--7~--1010-9-99-7-:
G:-8~--7~---8-8-7-77-5-:
C:-8~--7~--------------:


Guitar 1        (x2)
D:-----------------:
A:-----------------:
F:-----------------:
C:-8~--7~--0~--10~-:
G:-8~--7~--0~--10~-:
C:-8~--7~--0~--10~-:

                              (these next two parts twice)
D:-------------------------------------------------------:
A:-------------------------------------------------------:
F:-------------------------------------------------------:
C:-88---88-8888---88-77---77-7777---77-00---00-0000---00-:
G:-88---88-8888---88-77---77-7777---77-00---00-0000---00-:
C:-88-88---8888-88---77-77---7777-77---00-00---0000-00---:
      ..        ..      ..        ..      ..        ..

D:---------------------------------:
A:---------------------------------:
F:---------------------------------:
C:-1010-----1010-10101010-----1010-:
G:-1010-----1010-10101010-----1010-:
C:-1010-1010-----10101010-1010-----:
         . .               . .

D:---------------------------------------:
A:---------------------------------------:
F:---------------------------------------:
C:-88---88-8888---88-77---77-7777---77-0-:
G:-88---88-8888---88-77---77-7777---77-0-:
C:-88-88---8888-88---77-77---7777-77---0-:
      ..        ..      ..        ..

Both        (x4) (on the 2nd
D:-------------:-----: time).
A:-------------:-----:
F:-------------:-----:
C:-------------:-----:
G:-00-00-00-00-:-----:
C:-00-00-00-00-:-000-:
   .. .. .. ..   ...

Thanks.
You can email me at irbyl@cg61.navy.mil for question/concerns, or just hit
me up on my profile here.
Добавлено: 15.04.2012
Другие материалы по этой песне:
  • Аккорды и текст

Страница создана 15.04.2012
http://primanota.ru/haste-the-day/walls-fears-chords.htm
Привет, Гость.
Предлагаем пройти революционный курс по гитаре.
Подарок от PrimaNota.Ru, забирай!