PrimaNota.ru - самый крупный в мире бесплатный архив песенных текстов, аккордов, табулатур и нот


Haste The Day - Oracle - текст песни, таба, видео

Регистрация Запомнить меня
Войти через:  Facebook Google Twitter Vk Yandex Mail.ru

Haste The Day - Oracle - текст песни, таба, видео

Печатать
Просмотров: 98
                                Haste the day
                               The oracle
Guitar one : Intro/ first part of verse
1---------------------------------------------------------------------------|
2---------------------------------------------------------------------------|
3---------------------------------------------------------------------------|
4-X-X-X-X-X-0-2p0h3p0-3--5-7-8--------10------------0-2p0h3p0-3--5-7--------|
5-X-X-X-X-X-0-3p0h3p0-3--5-7-8--8-7-5-10---10--8-7--0-3p0h3p0-3--5-7--------|
6-X-X-X-X-X-0---------3--5-7-8-8------10-10---------0---------3--5-7--------|
                               .         .
Continued
1---------------------------------------------------------------------------|
2---------------------------------------------------------------------------|
3---------------------------------------------------------------------------|
4--------------------------------0------------------------------------------|
5--------------------------------0------------------------------------------|
6-0-0h3p0h5p0h6p0h5p0h3p0h5h6p5--0------------------------------------------|

Play this twice

Guitar two : Intro

1----------------------------------------------------------------------------|
2----------------------------------------------------------------------------|
3----------------------------------------------------------------------------|
4X-X-X-X-X-0-2p0h3p0-3--5-7-8--7-5-3-10---8-7-5-0-2p0h3p0-3--5-7-------------|
5-X-X-X-X-X-0-3p0h3p0-3--5-7-8--------10---------0-3p0h3p0-3--5-7------------|
6-X-X-X-X-X-0---------3--5-7-8-8------10-10------0---------3--5-7------------|
play that pull off and hammer on thing agian
and i'll have the rest of the song on. I know it it just takes too long to tab.
Добавлено: 21.02.2012
Другие материалы по этой песне:
  • Аккорды и текст

Страница создана 21.02.2012
http://primanota.ru/haste-the-day/the-oracle-chords.htm
Привет, Гость.
Предлагаем пройти революционный курс по гитаре.
Подарок от PrimaNota.Ru, забирай!