PrimaNota.ru - самый крупный в мире бесплатный архив песенных текстов, аккордов, табулатур и нот


Haste The Day - Invoke Reform - таба, видео

Регистрация Запомнить меня
Войти через:  Facebook Google Twitter Vk Yandex Mail.ru

Haste The Day - Invoke Reform - таба, видео

Печатать
Просмотров: 125
Haste the Day
Invoke Reform
Dreamer(2008)

Drop C
* - PM
~ - Let Ring

Intro
|-----------------|
|-----------------|
|-----------------|
|-8-~-45----------| x1
|-8-~-45----------|
|-8-~-45----------|

Verse - Guitar 1
|-------------------------------------------------|
|-------------------------------------------------|
|-------------------------------------------------|
|-----5555-55555555-8-0-1-1111-11111111-10-4-5----| x4
|-----5555-55555555-8-0-1-1111-11111111-10-4-5----|
|-----5555-55555555-8-0-1-1111-11111111-10-4-5----|
      **** ********       **** ********   

Verse - Guitar 2
|---------------------------|
|---------------------------|
|-----0-07080705070807------|
|---------------------------| x20
|---------------------------|
|---------------------------|

Pre-Chorus - Guitar 1 & 2
|-------------------------------------|
|-------------------------------------|
|-------------------------------------|
|--------------------------0~4~-------| x2
|--------------------------0~4~-------|
|--00-01-00-01-00-01-00-01-0~4~-------|
   ** ** ** ** ** ** ** **

Chorus - Guitar 1
|---------------------------------------|
|---------------------------------------|
|---------------------------------------|
|--11111111-00000000-55555555-88888888--|
|--11111111-00000000-55555555-88888888--|
|--11111111-00000000-55555555-88888888--|

|---------------------------------------|
|---------------------------------------|
|---------------------------------------|
|--11111111-00000000-55555555-33333333--|
|--11111111-00000000-55555555-33333333--|
|--11111111-00000000-55555555-33333333--|

Chorus - Guitar 2
|-----------|
|-----------|
|--7050708--|
|-----------| x8
|-----------|
|-----------|

Pre-Chorus - Guitar 1 & 2
|-------------------------------------|
|-------------------------------------|
|-------------------------------------|
|--------------------------0~4~-------| x6
|--------------------------0~4~-------|
|--00-01-00-01-00-01-00-01-0~4~-------|
   ** ** ** ** ** ** ** **

Chorus - Guitar 1
|---------------------------------------|
|---------------------------------------|
|---------------------------------------|
|--11111111-00000000-55555555-88888888--|
|--11111111-00000000-55555555-88888888--|
|--11111111-00000000-55555555-88888888--|

|---------------------------------------|
|---------------------------------------|
|---------------------------------------|
|--11111111-00000000-55555555-33333333--|
|--11111111-00000000-55555555-33333333--|
|--11111111-00000000-55555555-33333333--|

Chorus - Guitar 2
|-----------|
|-----------|
|--7050708--|
|-----------| x8
|-----------|
|-----------|

Breakdown - Guitar 1 & 2
|----------------------------------------|
|----------------------------------------|
|----------------------------------------|
|--------------------------------10-12/--| x1 
|--------------------------------10-12/--|
|--00-01-00-01-00-01-00-01-00-01-10-12/--|
   ** ** ** ** ** ** ** ** ** **
|----------------------------------------|
|----------------------------------------|
|----------------------------------------|
|--0000-0000-0-0-00000-0000-10-12--------| x4
|--0000-0000-0-0-00000-0000-10-12--------|
|--0000-0000-0-0-00000-0000-10-12--------|
   **** **** * * ***** **** 

Chorus - Guitar 1
|---------------------------------------|
|---------------------------------------|
|---------------------------------------|
|--11111111-00000000-55555555-88888888--|
|--11111111-00000000-55555555-88888888--|
|--11111111-00000000-55555555-88888888--|
                                            x2
|---------------------------------------|
|---------------------------------------|
|---------------------------------------|
|--11111111-00000000-55555555-33333333--| 
|--11111111-00000000-55555555-33333333--|
|--11111111-00000000-55555555-33333333--|

Chorus - Guitar 2
|-----------|
|-----------|
|--7050708--|
|-----------| x16
|-----------|
|-----------|

Outro - Guitar 1
|-------|
|-------|
|-------|
|--4-5--|
|--4-5--|
|--4-5--|

|-------------------------------------------------|---------|
|-------------------------------------------------|---------|
|-------------------------------------------------|---------|
|-----5555-55555555-8-0-1-1111-11111111-10-4-5----|--55-55--| x1
|-----5555-55555555-8-0-1-1111-11111111-10-4-5-x2-|--55-55--|
|-----5555-55555555-8-0-1-1111-11111111-10-4-5----|--55-55--|
      **** ********       **** ********              ** **

Outro - Guitar 2
|-------|
|-------|
|-------|
|--4-5--|
|--4-5--|
|--4-5--|

|---------------------------|
|---------------------------|
|-----0-07080705070807------|
|---------------------------| x25
|---------------------------|
|---------------------------|

enjoy this is my first tab
by Parkwaydrive631


Добавлено: 12.04.2012
Другие материалы по этой песне:

Страница создана 12.04.2012
http://primanota.ru/haste-the-day/invoke-reform-chords.htm
Привет, Гость.
Предлагаем пройти революционный курс по гитаре.
Подарок от PrimaNota.Ru, забирай!