PrimaNota.ru - самый крупный в мире бесплатный архив песенных текстов, аккордов, табулатур и нот


Haste The Day - Mad Man - таба, видео

Регистрация Запомнить меня
Войти через:  Facebook Google Twitter Vk Yandex Mail.ru

Haste The Day - Mad Man - таба, видео

Печатать
Просмотров: 192
-------------------------------------------------------------------------------
                             Mad Man - Haste the Day
-------------------------------------------------------------------------------
Tabbed by:
Email:

Tuning:Drop C

Intro
e|--------------------------------------------------------------------|
B|--------------------------------------------------------------------|
G|10-------9----15---14-----------------------10-----9---14---12------|
D|----------------------------------7------------------------------5--|
A|8--------7----13---12------7-8-10---10-8-7--8------7---12---10---0--|
E|---0--0----------------0-0---------------------0-0---------------7--|

Verse (Listen for rythmn and transaction)
e|----------------------------------------------------------------|
B|----------------------------------------------------------------|
G|----------------------------------------------------------------|
D|----------------------------------------------------------------|
A|----------------------------------------------------------------|
E|-8-0-0-8-0-8-0-8-0-0-8-0-8-0-8-0-0-8-0-8-0-8-0-7-0-0-7-0-7-0-7--|

Chorus

Guitar 1
e|---------------------------------------------------------------------------------|
B|---------------------------------------------------------------------------------|
G|---------------------------------------------------------------------------------|
D|-0-----3------8---------7--------------------------------------------------------|
A|-0-----3------8---------7--------------------------------------------------------|
E|-0-----3------8---------7--------------------------------------------------------|

Guitar 2
e|-------------------------------------------------------------------------------|
B|-------------------------------------------------------------------------------|
G|----12--12--14------12--12--14------12--12--14-----12--14--15----12--14--15----|
D|-12-------------12--------------12--------------12------------12---------------|
A|-------------------------------------------------------------------------------|
E|-------------------------------------------------------------------------------|

e|--------------------------------|
B|--------------------------------|
G|-----12--14--15-----12--12--14--|
D|-12--------------12-------------|
A|--------------------------------|
E|--------------------------------|


Bridge pt. 1
e|-------------------------------------------------------|
B|-------------------------------------------------------|
G|-------------------------------------------------------|
D|-3---2---8---7---------------------3---2---7---5---2~--|
A|-3---2---8---7---------------------3---2---7---5---2~--|
E|-3---2---8---7--0-0-0-0-0-0-0-0-0--3---2---7---5---2~--|

Bridge pt. 2
e|---------------------------------------------------------------|
B|---------------------------------------------------------------|
G|---------------------------------------------------------------|
D|---------------------------------------------------------------|
A|-3-----2-----8-----7----------------3-----2-----7-----5-----2--|
E|-3-0-0-2-0-0-8-0-0-7-0-0-0-0000000--3-0-0-2-0-0-7-0-0-5-0-0-2--|


Breakdown (All open p.m. just figure rythmn)
e|-----------------------------------------------------------------------------------|
B|-----------------------------------------------------------------------------------|
G|-----------------------------------------------------------------------------------|
D|-----------------------------------------------------------------------------------|
A|-0-0-------------------------------------------------------------------------------|
E|-0-0-----7p0-8---------------------------------------------------------------------|

Final Chorus (Lead)

e|---
B|18---17---15~----14--18---17---15~----14--15~-----
Order

Intro 2x
Verse 2x
Intro 2x
Chorus 2x
Bridge pt. 1 2x
Bridge pt. 2 2x
Verse 2x
Chorus 2x
Breakdown
Chorus 4x
Добавлено: 17.07.2012
Другие материалы по этой песне:

Страница создана 02.03.2012
http://primanota.ru/haste-the-day/mad-man-chords.htm
Привет, Гость.
Предлагаем пройти революционный курс по гитаре.
Подарок от PrimaNota.Ru, забирай!