PrimaNota.ru - самый крупный в мире бесплатный архив песенных текстов, аккордов, табулатур и нот


Haste The Day - Minor Prophets - текст песни, таба, бас-таба, видео

Регистрация Запомнить меня
Войти через:  Facebook Google Twitter Vk Yandex Mail.ru

Haste The Day - Minor Prophets - текст песни, таба, бас-таба, видео

Печатать
Просмотров: 166
                             Haste The Day - The Minor Prophets


1/21 update: Okay, so i went to see them saturday and saw that jason played the intro 
more notes in it. so i put in the extra notes and it should sound like what you hear their shows.

3/20 udpate: Ahh! finally a video to show how they do it!
which means lots of changes...
http://www.fearlessmusic.com/view_video.php?viewkey=7c70561bf5e03b95aa99

This is a pretty simple song, and a good one at that. I don't have the rhythm exactly 
it is but you can figure it out. Please rate and enjoy!

Tuning: drop C - CGCFAD


intro:

guitar 1-

|----------5-------------5-------------5-------------8------|
|------6-----6-------6-----6-------6-----6-------6-----6----|
|----7---7-----7---7---7-----7---7---7-----7---7---7-----7--| x3
|--8-------------5-------------0-------------0--------------|
|-----------------------------------------------------------|
|-----------------------------------------------------------|

|----------5-------------5-------------0-------------0------|
|------6-----6-------6-----6-------6-----6-------6-----6----|
|----7---7-----7---7---7-----7---7---7-----7---5---5-----5--|
|--8-------------5-------------0-------------0--------------|
|-----------------------------------------------------------|
|-----------------------------------------------------------|

guitar 2- pick slide before the chorus

chorus:

both guitars-

|---------------------------------------|
|---------------------------------------|
|---------------------------------------| x3
|--888888-555555-000000-x-10-xx-1010----|
|--888888-555555-000000-x-10-xx-1010----|
|--888888-555555-000000-x-10-xx-1010----|

|---------------------------------------|
|---------------------------------------|
|---------------------------------------|
|--888888-888888-555555-555555----------|
|--888888-888888-555555-555555----------|
|--888888-888888-555555-555555----------|

verse:

both guitars-

|----------------------------------------------------------|
|----------------------------------------------------------|
|-----7/10-------------------------------------------------| x4
|--00-x/x--8-777777-888888---------------------------------|
|--00-5/8--8-777777-888888--10--8--------------------------|
|--00------8-777777-888888-8---7---------------------------|

guitar 1-

|----------------------------------------------------------|
|----------------------------------------------------------|
|-------------------999999---------------------------------| x2
|------------000000-xxxxxx------------888888-555555--------|
|--5p3p0-----000000-777777--5p3p0-----888888-555555--------|
|--------5-3-000000---------------5-3-888888-555555--------|

guitar 2-

|----------------------------------------------------------|
|----------------------------------------------------------|
|----------------------------------------------------------| x2
|------------000000-101010101010------------888888-555555--|
|--5p3p0-----000000-101010101010--5p3p0-----888888-555555--|
|--------5-3-000000-101010101010--------5-3-888888-555555--|

chorus 2:

both guitars-

|---------------------------------------|
|---------------------------------------|
|---------------------------------------| x3
|--888888-555555-000000-x-10-xx-1010----|
|--888888-555555-000000-x-10-xx-1010----|
|--888888-555555-000000-x-10-xx-1010----|

|---------------------------------------|
|---------------------------------------|
|---------------------------------------|
|--888888-888888-555555-555555----------|
|--888888-888888-555555-555555----------|
|--888888-888888-555555-555555----------|

verse 2a:

guitar 1-

|------8--8--8--8-8~----------8--8--8--8-5~--|
|----6--6--6--6--6----------6--6--6--6--6----|
|---7-7--7--7--7-----------7-7--7--7--7------|
|--8----------------------8------------------|
|--------------------------------------------|
|--------------------------------------------|

|------8--8--8--8-8~----------8--8--8--8-8~--|
|----6--6--6--6--6----------6--6--6--6--6----|
|---7-7--7--7--7-----------7-7--7--7--7------|
|--8----------------------8------------------|
|--------------------------------------------|
|--------------------------------------------|

guitar 2-

|--------------------------------------|
|--------------------------------------|
|--------------------------------------| x3
|--888888-888888-000000-33-55----------|
|--888888-888888-000000-33-55----------|
|--888888-888888-000000-33-55----------|

|--------------------------------------|
|--------------------------------------|
|--------------------------------------|
|--888888-888888-101010101010--888888--|
|--888888-888888-101010101010--888888--|
|--888888-888888-101010101010--888888--|

verse 2b:

both guitars-

|--------------------------------------|
|--------------------------------------|
|-----7/10-----------------------------| x3
|--00-x/x--8-777777-888888-------------|
|--00-5/8--8-777777-888888--10--8------|
|--00------8-777777-888888-8---7-------|

|--------------------------------------|
|--------------------------------------|
|-----7/10-----------------------------|
|--00-x/x--8-777777-888888-------------|
|--00-5/8--8-777777-888888--5p3p0------|
|--00------8-777777-888888--------5-3--|

verse 2c:

guitar 1-

|------8--8--8--8-8~----------8--8--8--8-5~--|
|----6--6--6--6--6----------6--6--6--6--6----|
|---7-7--7--7--7-----------7-7--7--7--7------|
|--8----------------------8------------------|
|--------------------------------------------|
|--------------------------------------------|

|------8--8--8--8-8~----------8--8--8--8-8~--|
|----6--6--6--6--6----------6--6--6--6--6----|
|---7-7--7--7--7-----------7-7--7--7--7------|
|--8----------------------8------------------|
|--------------------------------------------|
|--------------------------------------------|

guitar 2-

|--------------------------------------|
|--------------------------------------|
|--------------------------------------| x3
|--888888-888888-000000-33-55----------|
|--888888-888888-000000-33-55----------|
|--888888-888888-000000-33-55----------|

|--------------------------------------|
|--------------------------------------|
|--------------------------------------|
|--888888-888888-101010101010--888888--|
|--888888-888888-101010101010--888888--|
|--888888-888888-101010101010--888888--|

chorus 3:

both guitars-

|---------------------------------------|
|---------------------------------------|
|---------------------------------------| x3
|--888888-555555-000000-x-10-xx-1010----|
|--888888-555555-000000-x-10-xx-1010----|
|--888888-555555-000000-x-10-xx-1010----|

|---------------------------------------|
|---------------------------------------|
|---------------------------------------|
|--888888-888888-555555-----------------|
|--888888-888888-555555-----------------|
|--888888-888888-555555-----------------|

verse 3:

guitar 1-

|----------------------------------------------------------|
|----------------------------------------------------------|
|-------------------999999---------------------------------| x2
|------------000000-xxxxxx------------888888-555555--------|
|--5p3p0-----000000-777777--5p3p0-----888888-555555--------|
|--------5-3-000000---------------5-3-888888-555555--------|

guitar 2-

|----------------------------------------------------------|
|----------------------------------------------------------|
|----------------------------------------------------------| x2
|------------000000-101010101010------------888888-555555--|
|--5p3p0-----000000-101010101010--5p3p0-----888888-555555--|
|--------5-3-000000-101010101010--------5-3-888888-555555--|

both guitars-

|----------------------------------------------------------|
|----------------------------------------------------------|
|----------------------------------------------------------|
|-------------8~-------------------------------------------|
|--5p3p0------8~-------------------------------------------|
|--------5-3--8~-------------------------------------------|

outro a:

both guitars-


|---------------------------------|
|-----------------------------10--|
|-----------------------------10--|
|--00-000-00---00000-00-000---8---|
|--00-000-00---00000-00-000---8---|
|--00-000-00---00000-00-000---8---|
   .. ... ..   ..... .. ...

|---------------------------------|
|-----------------------------10--|
|-----------------------------10--|
|--00-000-00---00000-00-000---8---|
|--00-000-00---00000-00-000---8---|
|--00-000-00---00000-00-000---8---|
   .. ... ..   ..... .. ...

|---------------------------------|
|---------------------------------|
|---------------------------------|
|--00-000-00---00000-00-000---1---|
|--00-000-00---00000-00-000---1---|
|--00-000-00---00000-00-000---1---|
   .. ... ..   ..... .. ...

|---------------------------------|
|-----------------------------10--|
|-----------------------------10--|
|--00-000-00---00000-00-000---8---|
|--00-000-00---00000-00-000---8---|
|--00-000-00---00000-00-000---8---|
   .. ... ..   ..... .. ...

outro b-

guitar 1-

|------8--8----8---------0-0-0--0-0-0~--|
|----6--6----6--6-6~----6-6-6----6-6----|
|--7-----7----7--7-----7----------------|
|---------------------------------------|
|---------------------------------------|
|---------------------------------------|

|----0--------0----------8--8----8------|
|---6-6-6---6--6-6~----6--6----6--6-6~--|
|--5---5---5-5--5----7-----7----7--7----|
|---------------------------------------|
|---------------------------------------|
|---------------------------------------|

guitar 2-

|---------------------------------|
|-----------------------------10--|
|-----------------------------10--|
|--00-000-00---00000-00-000---8---|
|--00-000-00---00000-00-000---8---|
|--00-000-00---00000-00-000---8---|
   .. ... ..   ..... .. ...

|---------------------------------|
|-----------------------------10--|
|-----------------------------10--|
|--00-000-00---00000-00-000---8---|
|--00-000-00---00000-00-000---8---|
|--00-000-00---00000-00-000---8---|
   .. ... ..   ..... .. ...

|---------------------------------|
|---------------------------------|
|---------------------------------|
|--00-000-00---00000-00-000---1---|
|--00-000-00---00000-00-000---1---|
|--00-000-00---00000-00-000---1---|
   .. ... ..   ..... .. ...

|---------------------------------|
|-----------------------------10--|
|-----------------------------10--|
|--00-000-00---00000-00-000---8---|
|--00-000-00---00000-00-000---8---|
|--00-000-00---00000-00-000---8---|
   .. ... ..   ..... .. ...

outro c:

both guitars-

|---------------------------------|
|-----------------------------10--|
|-----------------------------10--|
|--00-000-00---00000-00-000---8---|
|--00-000-00---00000-00-000---8---|
|--00-000-00---00000-00-000---8---|
   .. ... ..   ..... .. ...

|---------------------------------|
|-----------------------------10--|
|-----------------------------10--|
|--00-000-00---00000-00-000---8---|
|--00-000-00---00000-00-000---8---|
|--00-000-00---00000-00-000---8---|
   .. ... ..   ..... .. ...

|---------------------------------|
|---------------------------------|
|---------------------------------|
|--00-000-00---00000-00-000---1---|
|--00-000-00---00000-00-000---1---|
|--00-000-00---00000-00-000---1---|
   .. ... ..   ..... .. ...

|---------------------------------|
|-----------------------------10--|
|-----------------------------10--|
|--00-000-00---00000-00-000---8---|
|--00-000-00---00000-00-000---8---|
|--00-000-00---00000-00-000---8---|
   .. ... ..   ..... .. ...


that's it! have fun showing your friends and parents and such!
Добавлено: 05.03.2012
Другие материалы по этой песне:

Страница создана 05.03.2012
http://primanota.ru/haste-the-day/minor-prophets-chords.htm
Привет, Гость.
Предлагаем пройти революционный курс по гитаре.
Подарок от PrimaNota.Ru, забирай!