PrimaNota.ru - самый крупный в мире бесплатный архив песенных текстов, аккордов, табулатур и нот


Gym Class Heroes - Its Ok But Just This Once - аккорды и текст, таба, бас-таба, видео

Регистрация Запомнить меня
Войти через:  Facebook Google Twitter Vk Yandex Mail.ru

Gym Class Heroes - Its Ok But Just This Once - аккорды и текст, таба, бас-таба, видео

Печатать
Просмотров: 318
Уроки эстрадного вокала в Санкт-Петербурге
Its Ok But Just This Once
Gym Class Heroes
-------------10-10-10-10-9-9-7-----------------------------------------|
-12-12-12-12-12-12-12-12-8-8-8-----------------------------------------|
-10-10-10-10-12-12-12-12-9-9-9-----------------------------------------|
-12-12-12-12-----------------------------------------------------------|
-----------------------------------------------------------------------|
-----------------------------------------------------------------------|

That's the all the verses. Just repeat that over and over and over until the chorus of course which is up next. 

-2-3--7-5--2-3--7--2-3--7-5--------------------------------------------|
-3-3--7-5--3-4--7--3-3--7-5--------------------------------------------|
-4-4-------4-5-----4-4-------------------------------------------------|
-4-5-------4-5-----4-5-------------------------------------------------|
-2-5-------2-5-----2-5-------------------------------------------------|
---3---------3-------3-------------------------------------------------|


-----------------------------------------------------------------------|
--------------5h6p5p3p0------------------------------------------------|
-----------------------------------------------------------------------|
-9-7-5-5-4-2-----------------------------------------------------------|
-9-7-5-5-4-2-----------------------------------------------------------|
-7-5-3-3-2-0-----------------------------------------------------------|

At the end repeat the chorus twice. 
Добавлено: 23.07.2015
Другие материалы по этой песне:
  • Аккорды и текст

Страница создана 29.02.2012
http://primanota.ru/gym-class-heroes/its-ok-but-just-this-once-chords.htm
Привет, Гость.
Предлагаем пройти революционный курс по гитаре.
Подарок от PrimaNota.Ru, забирай!