PrimaNota.ru - самый крупный в мире бесплатный архив песенных текстов, аккордов, табулатур и нот


Gym Class Heroes - Kid Nothing Boy Vs The Echo Factor - аккорды и текст, таба, видео

Регистрация Запомнить меня
Войти через:  Facebook Google Twitter Vk Yandex Mail.ru

Gym Class Heroes - Kid Nothing Boy Vs The Echo Factor - аккорды и текст, таба, видео

Печатать
Просмотров: 128
Kid Nothing Boy Vs The Echo Factor
Gym Class Heroes
e|--------------------------------------------------------------------------|
B|--------------------------------------------------------------------------|
G|--------------------------------------------------------------------------|
D|-----5-4-0-5-4-0-4--------5-4-0-5-4-0-4----------5-4-0-5-4-0-4------------|
A|---------------------------------------------2----------------------------|
E|-3---------------------5--------------------------------------------------|

e|--------------------------------------|
B|--------------------------------------|
G|---------------0----------------------|
D|-----0--2--4-----4--2--0--------------|
A|--2-----------------------------------|
E|--------------------------------------|
Добавлено: 30.08.2015
Другие материалы по этой песне:
  • Аккорды и текст

Страница создана 29.04.2012
http://primanota.ru/gym-class-heroes/kid-nothing-boy-vs-the-echo-factor-chords.htm
Привет, Гость.
Предлагаем пройти революционный курс по гитаре.
Подарок от PrimaNota.Ru, забирай!