PrimaNota.ru - самый крупный в мире бесплатный архив песенных текстов, аккордов, табулатур и нот


Gym Class Heroes - Like Father Like Son - бас-таба, видео

Регистрация Запомнить меня
Войти через:  Facebook Google Twitter Vk Yandex Mail.ru

Gym Class Heroes - Like Father Like Son - бас-таба, видео

Печатать
Просмотров: 110
-------------------------------------------------------------------------------
			     Like Father, Like Son - Gym Class Heroes
-------------------------------------------------------------------------------

Tabbed By :Otis H

Tuning:standard

G|------------------------------------------------------------------------------|
D|------------------------------------------------------------------------------|
A|--------------3-3----1-------------------------3--3--------3--3---------------|
E|--1-----1--3-------1-------33-----3---5---3-----------------------------------|
     for the threes close together, it's just a stutter step kind of thing
G|---------------------------------------------------------------------------|
D|---------------------------------------------------------------------------|
A|----3--3------3--3-----3-1-0-----------------------------------------------|repeat
E|-----------------------------3-1-------------------------------------------|

repeat this at all of the verses

| /  slide up
| \  slide down
| h  hammer-on
| p  pull-off
| ~  vibrato
| +  harmonic
| x  Mute note
===============================================================================
Добавлено: 04.07.2012
Другие материалы по этой песне:
  • Аккорды и текст

Страница создана 04.07.2012
http://primanota.ru/gym-class-heroes/like-father-like-son-chords.htm
Привет, Гость.
Предлагаем пройти революционный курс по гитаре.
Подарок от PrimaNota.Ru, забирай!