PrimaNota.ru - самый крупный в мире бесплатный архив песенных текстов, аккордов, табулатур и нот


Gym Class Heroes - Taxi Driver - аккорды и текст, таба, бас-таба, видео

Регистрация Запомнить меня
Войти через:  Facebook Google Twitter Vk Yandex Mail.ru

Gym Class Heroes - Taxi Driver - аккорды и текст, таба, бас-таба, видео

Печатать
Просмотров: 309
Taxi Driver
Gym Class Heroes
As recorded by Gym Class Heroes
                  (From the 2005 Album THE PAPERCUT CHRONICLES)

Words and Music by Gym Class Heroes
Arranged by Gym Class Heroes
Transcribed by jonathanonfire

Gtr I (E A D G B E) - 'Untitled'

 Intro
  Rock the 40 oz. Q=87
  (D)         (F#m/C#)      (F#m/C)     (Bm)
 4/4
  Gtr I
   E  E  E  E  E  E  E  E    E  E  E  E E E E  E
|-------------------------|-------------------10-|
|-------10----------10----|-------10--------7----|
|----11----11----11----11-|----11----11---7------|
|-12----------11----------|-10----------9--------|
|-------------------------|----------------------|
|-------------------------|----------------------|


       (D/Bb) (A6sus4)    (D/G)    (C#m/F#(Bm)
   +E  E  E E E a E E E    E  E  E E  E E E E
|-(10)---10-------------|----------------------||
|-----------7---7h8-7---|----------------------||
|---------------------7-|-------11------9---7--||
|------8------7---------|----12------11---9----||
|-----------------------|-10-------9-----------||
|-----------------------|----------------------||


   Rap
    (D)         (F#m/C#)      (F#m/C)     (Bm)
    Gtr I
     E  E  E  E  E  E  E  E    E  E  E  E E E E  E
||--------------------------|-------------------10-|
||o-------10----------10----|-------10--------7----|
||-----11----11----11----11-|----11----11---7------|
||--12----------11----------|-10----------9--------|
||o-------------------------|----------------------|
||--------------------------|----------------------|


       (D/Bb) (A6sus4)    (D/G)    (C#m/F#(Bm)
   +E  E  E E E a E E E    E  E  E E  E E E E
|-(10)---10-------------|-----------------------||
|-----------7---7h8-7---|----------------------o||
|---------------------7-|-------11------9---7---||
|------8------7---------|----12------11---9-----||
|-----------------------|-10-------9-----------o||
|-----------------------|-----------------------||


  (D)         (F#m/C#)      (F#m/C)     (Bm)       N.C.
   E  E  E  E  E  E  E  E    E  E  E  E E E E  E    +E  H..         W
|-------------------------|-------------------10-|-(10)-----------|------|
|-------10----------10----|-------10--------7----|----------------|------|
|----11----11----11----11-|----11----11---7------|----------------|------|
|-12----------11----------|-10----------9--------|----------------|------|
|-------------------------|----------------------|----------------|------|
|-------------------------|----------------------|----------------|------|


    (D)         (F#m/C#)      (F#m/C)     (Bm)
     E  E  E  E  E  E  E  E    E  E  E  E E E E  E
||--------------------------|-------------------10-|
||o-------10----------10----|-------10--------7----|
||-----11----11----11----11-|----11----11---7------|
||--12----------11----------|-10----------9--------|
||o-------------------------|----------------------|
||--------------------------|----------------------|


       (D/Bb) (A6sus4)    (D/G)    (C#m/F#(Bm)
   +E  E  E E E a E E E    E  E  E E  E E E E   4x
|-(10)---10-------------|-----------------------||
|-----------7---7h8-7---|----------------------o||
|---------------------7-|-------11------9---7---||
|------8------7---------|----12------11---9-----||
|-----------------------|-10-------9-----------o||
|-----------------------|-----------------------||


 Outro
  Emo gangster Q=90
  N.C.
  S S S S S S S S S S S S S S S S   S S S S S S S S S S S S S S S S
|---------------------------------|---------------------------------|
|---------------------------------|---------------------------------|
|-7-7-7-7-7-7-7-7-7-7-7-7-7-7-7-7-|-6-6-6-6-6-6-6-6-6-6-6-6-6-6-6-6-|
|---------------------------------|---------------------------------|
|---------------------------------|---------------------------------|
|---------------------------------|---------------------------------|


  S S S S S S S S S S S S S S S S   S S S S S S S S S S S S S S S S
|---------------------------------|------------------------------------|
|---------------------------------|------------------------------------|
|-5-5-5-5-5-5-5-5-5-5-5-5-5-5-5-5-|-4-4-4-4-4-4-4-4-4-4-4-4-4-4-4-4----|
|---------------------------------|------------------------------------|
|---------------------------------|------------------------------------|
|---------------------------------|------------------------------------|


  N.C.
  S S S S S S S S S S S S S S S S   S S S S S S S S S S S S S S S S
|---------------------------------|---------------------------------|
|---------------------------------|---------------------------------|
|-3-3-3-3-3-3-3-3-3-3-3-3-3-3-3-3-|-2-2-2-2-2-2-2-2-2-2-2-2-2-2-2-2-|
|---------------------------------|---------------------------------|
|---------------------------------|---------------------------------|
|---------------------------------|---------------------------------|


   S S S S S S S S  S S S S S S E    S S S S S S S S S S S S S S S S
|----------------------------------|------------------------------------|
|----------------------------------|------------------------------------|
|-/4-4-4-4-4-4-4-4-/6-6-6-6-6-6-6-|------------------------------------|
|----------------------------------|-4-4-4-4-7-5-4-5-4-4-4-4-7-5-4-5----|
|----------------------------------|------------------------------------|
|----------------------------------|------------------------------------|


  N.C.
  S S S S S S S S S S S S S S S S   S S S S  S S S S S S S S  S S S S
|---------------------------------|-----------------------------------|
|---------------------------------|-----------------------------------|
|---------------------------------|-7-7-7-7-11-9-7-9-7-7-7-7-11-9-7-9-|
|-4-4-4-4-7-5-4-5-4-4-4-4-7-5-4-5-|-----------------------------------|
|---------------------------------|-----------------------------------|
|---------------------------------|-----------------------------------|


  S S S S  S S S S S S S S  S S S S   S S S S  S S S S H
|-----------------------------------|-----------------------*|
|-----------------------------------|-----------------------*|
|-7-7-7-7-11-9-7-9-7-7-7-7-11-9-7-9-|-7-7-7-7-11-9-7-9------*|
|-----------------------------------|-----------------------*|
|-----------------------------------|-----------------------*|
|-----------------------------------|-----------------------*|


Duration Legend
---------------
W - whole; H - half; Q - quarter; E - 8th; S - 16th; T - 32nd; X - 64th; a - acciaccatura
+ - note tied to previous; . - note dotted; .. - note double dotted
Uncapitalized letters represent notes that are staccato (1/2 duration)
Irregular groupings are notated above the duration line
Duration letters will always appear directly above the note/fret number it represents the
duration for.  Duration letters with no fret number below them represent rests.  Multi-
bar rests are notated in the form Wxn, where n is the number of bars to rest for.  Low
melody durations appear below the staff

Tablature Legend
----------------
 h   - hammer-on
 p   - pull-off
 b   - bend
 pb  - pre-bend
 r   - bend release (if no number after the r, then release immediately)
 /  - slide into or out of (from/to "nowhere")
 s   - legato slide
 S   - shift slide
  - natural harmonic
[n]  - artificial harmonic
n(n) - tapped harmonic
 ~   - vibrato
 tr  - trill
 T   - tap
 TP  - trem. picking
 PM  - palm muting
n/  - tremolo bar dip; n = amount to dip
 n  - tremolo bar down
 n/  - tremolo bar up
/n  - tremolo bar inverted dip
 =   - hold bend; also acts as connecting device for hammers/pulls
   - volume swell (louder/softer)
 x   - on rhythm slash represents muted slash
 o   - on rhythm slash represents single note slash

Misc Legend
-----------
 |  - bar
||  - double bar
||o - repeat start
o|| - repeat end
*|  - double bar (ending)
 :  - bar (freetime)
 $  - Segno
 &  - Coda
Tempo markers -  = BPM(8/16=s8/s16), where s8 = swing 8ths, s16 = swing 16ths

Добавлено: 29.03.2014
Другие материалы по этой песне:

Страница создана 26.02.2012
http://primanota.ru/gym-class-heroes/taxi-driver-chords.htm
Привет, Гость.
Предлагаем пройти революционный курс по гитаре.
Подарок от PrimaNota.Ru, забирай!