PrimaNota.ru - самый крупный в мире бесплатный архив песенных текстов, аккордов, табулатур и нот


Gym Class Heroes - Kid Nothing Vs The Echo Factor - аккорды и текст, таба, видео

Регистрация Запомнить меня
Войти через:  Facebook Google Twitter Vk Yandex Mail.ru

Gym Class Heroes - Kid Nothing Vs The Echo Factor - аккорды и текст, таба, видео

Печатать
Просмотров: 133
Kid Nothing Vs The Echo Factor
Gym Class Heroes
-------------------------------------------------------------------------------
             Kid Nothing Vs. The Echo Factor - Gym Class Heroes
-------------------------------------------------------------------------------
Tabbed by: Hostile Apostle
 
Please send suggestions and corrections to Mareed129@aol.com

Tuning: Standard

Intro
e|--------------------------------------------------|
B|--------------------------------------------------|
G|--------------------------------------------------|
D|--9-9/12--11--7--5~-4h5p4h5p4---4/9--9-7/11--5~---|
A|------------------------------5-------------------|
E|--------------------------------------------------|

e|--------------------------------------------------|
B|--------------------------------------------------|
G|--------------------------------------------------|
D|--4h5p4h5p4----4/9-7/11-5~-4h5p4h5p4----4/9-7/11--|
A|------------5------------------------5------------|
E|--------------------------------------------------|

e|--------------------------------------------------|
B|--------------------------------------------------|
G|--------------------------------------------------|
D|--5~-4h5p4h5p4------------------------------------|
A|---------------5----------------------------------|
E|--------------------------------------------------|

Pre-chorus
e|--------------------------------------------------|
B|--------------------------------------------------|
G|--------------------------------------------------|
D|--------------------------------------------------|x2
A|--5-5-5--5-5-5--5-5-5--4-4-4----------------------|
E|--------------------------------------------------|

e|--------------------------------------------------|
B|---------4/75---------5------------------------|
G|--------------------------------------------------|
D|------------------------------------------4-----|x2
A|--5-5-5---------5-5-5-------5-5-5--4-4-4----------|
E|--------------------------------------------------|

Chorus
e|--------------------------------------------------|
B|--12--15--14--10--12------------------------------|
G|--11--11--11--11--11------------------------------|
D|--12--12--12--12--12---9--------------------------|x4
A|-------------------------9-7-5------------------|
E|--------------------------------------------------|

Outro
e|--------------------------------------------------|
B|--------------------------------------------------|
G|--------------------------------------------------|
D|------5-4---5-4---4-------5-4---5-4---4-----------|
A|----------5-----5-------------5-----5-------------|
E|--3-------------------5---------------------------|

e|--------------------------------------------------|
B|--------------------------------------------------|
G|------------------------------0-------------------|
D|------5-4---5-4---4-----0-2-4---4-2-0-------------|
A|--2-------5-----5-----2---------------------------|
E|--------------------------------------------------|

The chords duing the chorus can also be played like this
but I'm pretty sure he plays it the other way on the record.
This way makes it sound a bit twangy but is slightly easier
to play.

e|--7--10-9--5--7--|
B|--7--7--7--7--7--|
G|--7--7--7--7--7--|
D|-----------------|
A|-----------------|
E|-----------------|

| PM Palm Mule
| /  Slide up
|   Slide down
| b  Bend
| h  Hammer-on
| p  Pull-off
| ~  Vibrato
| +  Harmonic
| x  Mute note
===============================================================================
Добавлено: 28.02.2014
Другие материалы по этой песне:
  • Аккорды и текст

Страница создана 26.07.2012
http://primanota.ru/gym-class-heroes/kid-nothing-vs-the-echo-factor-chords.htm
Привет, Гость.
Предлагаем пройти революционный курс по гитаре.
Подарок от PrimaNota.Ru, забирай!