PrimaNota.ru - самый крупный в мире бесплатный архив песенных текстов, аккордов, табулатур и нот


Gustavo Santaolalla - Brokeback Mountain - таба, видео

Регистрация Запомнить меня
Войти через:  Facebook Google Twitter Vk Yandex Mail.ru

Gustavo Santaolalla - Brokeback Mountain - таба, видео

Печатать
Просмотров: 894
> Guitar Tabs for the Brokeback Mountain Original Soundtrack
> Artist: Gustavo Santaolalla (http://en.wikipedia.org/wiki/Gustavo_Santaolalla)
> Tabbed by: Duffman (duffmantabs@googlemail.com)

Notes:

> / and \ indicate slide up and slide down.

> h and p indicates hammer on and pull off.

> (s) indicates a slow strum using the thumb.

> <#> indicates a natural harmonic over specified fret.

> Notes followed by * are not actually played in the soundtrack, but I have added them as it sounds better
  for a guitar solo (minus the symphony backing music).

> (T) indicates to use thumb to depress note (for ease).


>> Opening <<

e|-5p4---5p4--------------------5p4---5p4--------------------------0-------------0--------<12>-----------|
B|-------------5---0----------------------5--0-----------------0---0-------------0---<12>------<12>------|
G|-------------------4/6----4------------------4/6----4----6---0---1----6----4---1-----------------------|
D|-------------------------------------------------------------0---2-------------2-----------------------|
A|-------------------0-------------------------0----------5----2---2---5---------2------------------<7>--|
E|-------------------------0-------------------------0---------3---0--------3----0-----------------------|

                                                              (s) (s)           (s)


>> Brokeback Mountain 1 <<

e|-----------------------------------------------------------------------------------|
B|--0------3-0----------8\--0----------------0------3-0----------8\---0--------------|
G|-------------4/6------------------2-------------------4/6-------------------2------|
D|-----------------------------------------------------------------------------------|
A|-------------0-------------------0--------------------0--------------------0-------|
E|--3----------------------3-----------------3----------------------3----------------|


e|------------------------------------------------------------------------------------------------------------|
B|--10-----8-7-------------------------------0---------------------------------------------------3-----3------|
G|--------------6-------4-6-7----------------0------2-0--0h2-----------------------------------2---2----------|
D|-0------------------------7-------7------0-0----------0--------2/4-0-2-----2/4-0---------0-0-------0--------|
A|-------------0------------9-------5--------2-------------------------3*----------2*-------------------------|
E|--------------------------7-------5--------3---------------------------------------3*-----------------------|

                           (s)     (s)      (s)                >--exaggerated sliding--<  >---fade out---<


e|----------------------------------------------------------------------3-----------------------------------------|
B|---10---13-10---12-------10----------7------7-----------1-----------0--------3------3-----5------3--------1-----|
G|--10-----------12-------10----12-9--7-----7---7--------2----------0---------------0---0------------------2------|
D|-10-----------12-------10----------0----0-------0-----3---------0---------------3-----------------------3-------|
A|----------------------------------------------------------------------------1------------3------1---------------|
E|-----------------------------------------------------------1--3----------3-----------------------------1--------|

                                                            (T)


No guitar during extended symphony-only part...


e|------------------------------------------------------------------------------------------------|
B|----0-----3-0----------8\----0------------------0-----3-0--------8\----0------------------------|
G|---0-----------4h6----------0-------2----------0-----------6----------0-------2-----------------|
D|--0------------------------0------------------0----------------------0-----------------<12>-----|
A|--------------0--------------------0----------------------0------------------0------------------|
E|-3------------------------3------------------3----------------------3---------------------------|


>> Riding Horses <<

e|--------------|
B|--------------|
G|-2---2-2---2--|  (this backing repeats gently throughout entire piece)
D|---5-----5----|
A|--------------|
E|--------------|


e|--------------------------------------------------|
B|--7------5------7------0------3-------------0-----|
G|-------------------------------------2------------| (x2)
D|-0-------------0----------------------------------|
A|-----------------------------2--------------------|
E|--------3-------------3-------------2------3------|


e|---------------|
B|--1------7-----|
G|-----3---------|
D|--------0------|
A|-1-------------|
E|---------------|


>> The Wings <<

Chords in use:


   G6     C   Cadd9  Dm    A/D    G

e|--x-----0-----0-----1-----x-----3-----|
B|--0-----1-----3-----3-----x-----3-----|
G|--0-----0-----0-----2-----2-----0-----|
D|--0-----2-----2-----0-----0-----0-----|
A|--2-----3-----3-----x-----0-----2-----|
E|--3-----x-----x-----x-----x-----3-----|


The song:

Note: Chords written above tab indicate those strummed by backing guitar.


e|-------1---0-----------------------------------|
B|-0-1-3-3---1---1-1-0---0-1-0-------------------|
G|-0-0-0-2---0-------0-----------2---0---0-0-----|
D|------------------------------0----------0-----|
A|---0-2-----3-------------0---0-----3-----------|
E|-3---------------3-----3---3-------------3-----|

                               (fast)


         Dm  C       G6   G6 C Cadd9 Dm  C     G6   G6 C Cadd9 Dm  C       G6

e|-------1---0-----------------------1---0---------------------1---0------------|
B|-0-1-3-3---1---1-1-0----0--1-3-----3---1---1-0----0--1-3-----3---1---1-1-0----|
G|-0-0-0-2---0-------0----0--0-0-----2---0-----0----0--0-0-----2---0-------0----|
D|-0----------------------------------------------------------------------------|
A|-2-0-2-----3---------------0-2---------3-------------0-2---------3------------|
E|-3---------------3------3------------------3------3--------------------3------|

  (s)


   G6 C G6 A/D   C     G6

e|-------------------------|
B|-0--1-0------------------|
G|-----------2---0---0-0---| (x2)
D|----------0----------0---|
A|----0----0-----3---------|
E|-3----3--------------3---|

         (fast)


Then just strumming the following chords as song lifts:

G6  C  Cadd9  Dm   C  G6  (x3, but with alternate timing for change to final G6 chord)

G6  C  G6     A/D  C  G6

G6  C  G6     A/D  C  G


*** End ***
Добавлено: 27.05.2012
Другие материалы по этой песне:
  • Аккорды и текст

Страница создана 27.05.2012
http://primanota.ru/gustavo-santaolalla/brokeback-mountain-chords.htm
Привет, Гость.
Предлагаем пройти революционный курс по гитаре.
Подарок от PrimaNota.Ru, забирай!