PrimaNota.ru - самый крупный в мире бесплатный архив песенных текстов, аккордов, табулатур и нот


Gustavo Santaolalla - The Last Of Us - The Path A New Beginning - таба, видео

Регистрация Запомнить меня
Войти через:  Facebook Google Twitter Vk Yandex Mail.ru

Gustavo Santaolalla - The Last Of Us - The Path A New Beginning - таба, видео

Печатать
Просмотров: 112
-------------------------------------------------------------------------------
              The Path A New Beginning - Gustavo Santaolalla
-------------------------------------------------------------------------------
Tabbed by: me?!
E-mail: xtheconclusion@web.de

My first Tab, the acoustic solo of "The Path A New Beginning", you probably know from the video game
"The Last Of Us".For the right rhythm you might listen to the song ingame or on youtube.
I searched this tab so long, didn't find it, so I had to figure it out, yw! :)
(I don't know about copyright and stuff, so I added a "wrong" note, you'll find it!)

Tuning: Standart

e|----------10------------9-7h9p7-10----10----10-----------------------------|
B|-10----------12-10-----------------10----------12----10--------------------|
G|-------11-------------9------------------11-------12-----------------------|
D|----12-------------11------------------------------------------------------|
A|---------------------------------------------------------------------------|
E|---------------------------------------------------------------------------|

e|----------10---------------9-7h9p7-----------------------------------------|
B|-10----------12----10--------------10-10-------12----10------10/12---------|
G|-------11-------12-------9------------------11----12-------9---------------|
D|----12----------------11-----------------12-------------11-----------------|
A|---------------------------------------------------------------------------|
E|---------------------------------------------------------------------------|

e|---------9b---------7h9p7----10-9------------------------------------------|
B|-10---------10------------10----10-21--------------------------------------|
G|-------9----------9-------------9------------------------------------------|
D|----11---------11----------------------------------------------------------|
A|---------------------------------------------------------------------------|
E|---------------------------------------------------------------------------|



************************************

| /   slide up
| \   slide down
| h   hammer-on
| p   pull-off
| ~   vibrato
| +   harmonic
| x   Mute note
| b   Bend
| pb  Pre-bend
| br  Bend release
| pbr Pre-bend release
| brb Bend release bend

************************************
Добавлено: 19.05.2016
Вам также может быть интересно:
Другие материалы по этой песне:
  • Аккорды и текст

Страница создана 19.05.2016
http://primanota.ru/gustavo-santaolalla/last-of-us-path-a-new-beginning-chords.htm
Привет, Гость.
Предлагаем пройти революционный курс по гитаре.
Подарок от PrimaNota.Ru, забирай!