PrimaNota.ru - самый крупный в мире бесплатный архив песенных текстов, аккордов, табулатур и нот


Gustavo Santaolalla - The Choice - таба, видео

Регистрация Запомнить меня
Войти через:  Facebook Google Twitter Vk Yandex Mail.ru

Gustavo Santaolalla - The Choice - таба, видео

Печатать
Просмотров: 2195
Уроки эстрадного вокала в Санкт-Петербурге
-------------------------------------------------------------------------------
                             The choice - Gustavo Santaolalla
-------------------------------------------------------------------------------
Tabbed by:MoonlightBlade
E-mail:Zombiesdude115@gmail.com

Tuning:Standard
[Intro] Play this twice Before verse I
e|---------------------------------------------------------------------------------|
B|---------------------------------------------------------------------------------|
G|--0-------------------0----------------------------------------------------------|
D|--------2---4--------------2---4-------------------------------------------------|
A|------3---5---------------3---5---4---7------------------------------------------|
E|-0------------------0------------5---8-------------------------------------------|
[Verse I]
e|---------------------------------------------------------------------------------|
B|---------------------------------------------------------------------------------|
G|---------0-2/4-------------------4-----------------------------------------------|
D|--2-------------2--2/4--2------4---4\2-------------------------------------------|
A|-3---------------------3---2/5---------------------------------------------------|
E|0--------------------------------------------------------------------------------|
[Outro] Play this twice and your done! :)
e|---------------------------------------------------------------------------------|
B|---------------------------------------------------------------------------------|
G|--0-----------------0-----------------------------2---4------------2---4---------|
D|---------------------------------------------------------------------------------|
A|------3---5-------------3---5---4---7--------------------------------------------|
E|-0-----------------0-----------5---8---------------------------------------------|
~~~☆~~~☆~~~☆~~~☆~~~☆~~~☆~~~☆~~~☆~~~

************************************

| /   slide up
| \   slide down
| h   hammer-on
| p   pull-off
| ~   vibrato
| +   harmonic
| x   Mute note
| b   Bend
| pb  Pre-bend
| br  Bend release
| pbr Pre-bend release
| brb Bend release bend

************************************
Добавлено: 14.06.2014
Другие материалы по этой песне:

Страница создана 12.06.2013
http://primanota.ru/gustavo-santaolalla/the-choice-chords.htm
Привет, Гость.
Предлагаем пройти революционный курс по гитаре.
Подарок от PrimaNota.Ru, забирай!