PrimaNota.ru - самый крупный в мире бесплатный архив песенных текстов, аккордов, табулатур и нот


Gustavo Santaolalla - The Last Of Us - Main Theme - таба, видео

Регистрация Запомнить меня
Войти через:  Facebook Google Twitter Vk Yandex Mail.ru

Gustavo Santaolalla - The Last Of Us - Main Theme - таба, видео

Печатать
Просмотров: 492
-------------------------------------------------------------------------------
                          THE LAST OF US (MAIN THEME)

Tabbed by: Skylark2016                         Composed by: Gustavo Santaolalla
-------------------------------------------------------------------------------
-------------------------------------------------------------------------------

This tab is in accordance to the audio from "The Last of Us" soundtrack (except
the Live Version intro).

This tab is not 100% correct as the main part is played on a Ronroco. This is
my translation to guitar.

************************************
Tuning: Standard       Key: E Minor      Tempo: ~105 BPM      Time:   4/4

 /   slide up
 \   slide down
 h   hammer-on
 p   pull-off
 
|-3-|            triplet
|~|              tie
{fade out...}    fade out into almost/complete silence
//               caesura
r#               rest for # quarter beats

************************************

LIVE VERSION SOLO-INTRO

{Play freely}
e|-------------------------|------------------|-------------------------|----------------|
B|-------------------------|------------------|-------------------------|----------------|
G|-0-----------2-----------|-0h2p0----0-----0-|-0-----------2-----------|-2h4----4-----4-|
D|-----2-2---2-----2-4---2-|--------2-----2---|-----2-2---2-----2-4---2-|------2-----2---|
A|---2-----2-----2-----2---|------2-----2-----|---2-----2-----2-----2---|----2-----2-----|
E|-------------------------|------------------|-------------------------|----------------|
   |-3-| |-3-| |-3-| |-3-|      |-3-| |-3-|      |-3-| |-3-| |-3-| |-3-|   |-3-| |-3-| 

|----------------------------|------------------|------------------------------|
|----------------------------|------------------|------------------------------|
|-0h2p0----------2-----------|-0h2p0----0-----0-|-3-----2h3p2---0h2p0----------|
|--------2-2---2-----2-4---2-|--------2-----2---|-----2--------2-------2-2---0-|
|------2-----2-----2-----2---|------2-----2-----|---2--------2-------2-----2---|
|----------------------------|------------------|------------------------------|
     |-3-| |-3-| |-3-| |-3-|      |-3-| |-3-|     |-3-|    |-3-|   |-3-| |-3-|   

|---------------------------|-------------------------|-------------0-|
|---------------------------|-------------------------|-------------0-|
|---------------------------|-------------------------|-------------0-|
|-0h2---2-2---2-2---2-2---2-|-1-----1-----1-----1-----|-2-----2-----2-|
|-----2-----2-----2-----2---|-----0-----0-----0-----0-|-----2-----2-2-|
|---------------------------|---2-----2-----2-----2---|---0-----0---0-|
    |-3-| |-3-| |-3-| |-3-|   |-3-| |-3-| |-3-| |-3-|   |-3-| |-3-| |

INTRO                           RIFF (I)
  Em  {fade out Measure #8...}  
e|-------------------------||  ||-------------------------|-------------------------| 
B|-------------------------||  ||-------------------------|-------------------------|
G|-0-----0-----0-----0-----||  ||-0-----------2-----------|-0-----0-----0-----0-----|
D|-----2-----2-----2-----2-||x8||-----2-2---2-----2-4---2-|-----2-----2-----2-----2-|
A|---2-----2-----2-----2---||  ||---2-----2-----2-----2---|---2-----2-----2-----2---|
E|-------------------------||  ||-------------------------|-------------------------|
   |-3-| |-3-| |-3-| |-3-|        |-3-| |-3-| |-3-| |-3-|   |-3-| |-3-| |-3-| |-3-|

|-------------------------|---------------------------|----------------------------|-------------------------|
|-------------------------|---------------------------|----------------------------|-------------------------|
|-0-----------2-----------|-2h4-----4-----4-----4-----|-0h2p0----------2-----------|-0-----0-----0-----0-----|
|-----2-2---2-----2-4---2-|-------2-----2-----2-----2-|--------2-2---2-----2-4---2-|-----2-----2-----2-----2-|
|---2-----2-----2-----2---|-----2-----2-----2-----2---|------2-----2-----2-----2---|---2-----2-----2-----2---|
|-------------------------|---------------------------|----------------------------|-------------------------|
  |-3-| |-3-| |-3-| |-3-|   |-3-| |-3-| |-3-| |-3-|        |-3-| |-3-| |-3-| |-3-|   |-3-| |-3-| |-3-| |-3-|
                                                             
|------------------------|---------------------------|-------------------------|
|------------------------|---------------------------|-------------------------|
|-3-----2-----0h2p0------|---------------------------|-------------------------|
|-----2-----2--------2-2-|-0h2---2-2---2-2---2-2---2-|-2---2-2---2-2---2-2---2-|
|---2-----2--------2-----|-----2-----2-----2-----2---|---2-----2-----2-----2---|
|------------------------|---------------------------|-------------------------|
   |-3-| |-3-|    |-3-|~|    |-3-| |-3-| |-3-| |-3-|   |-3-| |-3-| |-3-| |-3-|      

II
 {fade out...}
e|-------------------------|--------------------------|-------------------------|-------------------------|
B|-------------------------|-3-----3-----3-----3------|-2-----2-----2-----2p1---|-1-----1-----1-----1-----|
G|-----------------------4-|-----4-----4-----4------4-|-------------------------|-------------------------|
D|-2---2-2---2-2---2---2---|---2-----2-----2------2---|-----2-----2-----2-----2-|-----2-----2-----2-----2-|
A|---2-----2-----2---------|--------------------------|---4-----4-----4-----4---|---3-----3-----3-----3---|
E|-------------------------|--------------------------|-------------------------|-------------------------|
   |-3-| |-3-| |-3-| |-3-|   |-3-| |-3-| |-3-| |-3-|    |-3-| |-3-| |-3-| |-3-|   |-3-| |-3-| |-3-| |-3-|  

|-------------------------|-------------------------|-------------------------|-------------------------|
|-0-----0-----0-----------|-3-----3-----3-----3h5---|-2-----2-----2-----2p1---|-1-----1-----1-----1-----|
|-------------------4p0---|-----4-----4----4------4-|-------------------------|-------------------------|
|-----2-----2-----2-----2-|---2-----2----2------2---|-----2-----2-----2-----2-|-----2-----2-----2-----2-|
|---2-----2-----2-----2---|-------------------------|---4-----4-----4-----4---|---3-----3-----3-----3---|
|-------------------------|-------------------------|-------------------------|-------------------------|
  |-3-| |-3-| |-3-| |-3-|   |-3-| |-3-| |-3-| |-3-|   |-3-| |-3-| |-3-| |-3-|   |-3-| |-3-| |-3-| |-3-| 
                           
                          III
|-------------------------|-------------------------|---|--------------------------------|
|-0-----0-----0-----------|-------------------------|---|--------------------------------|
|-------------------4p0---|-2-----2-----2-----2-----|-2-|-0------------------------------|
|-----2-----2-----2-----2-|-----2-----2-----2-----2-|---|-------4-----2h4p2-----0h2p0----|
|---2-----2-----2-----2---|---3-----3-----3-----3---|---|-----3-----3--------3---------3-|
|-------------------------|-------------------------|---|---5-----5--------5---------5---|
  |-3-| |-3-| |-3-| |-3-|   |-3-| |-3-| |-3-| |-3-|       |-3-| |-3-|    |-3-|     |-3-| 

              {fade out...}                                    {fade out...}
|-------------------------|---------------------|--------------------------|--|
|-------------------------|---------------------|--------------------------|--|
|-------------------------|---------------------|--------------------------|--|
|-4-----4-----4-----4-----|-4-----4-----4-----4-|-5p2----2-----2-----2-----|r4|
|-----3-----3-----3-----3-|-----3-----3-----3---|------2-----2-----2-----2-|--|
|---5-----5-----5-----5---|---5-----5-----5-----|----3-----3-----3-----3---|--|
   |-3-| |-3-| |-3-| |-3-|  |-3-| |-3-| |-3-|      |-3-| |-3-| |-3-| |-3-|

RIFF (IV)

e|-------------------------|-------------------------|-------------------------|---------------------------|
B|-------------------------|-------------------------|-------------------------|---------------------------|
G|-0-----------2-----------|-0-----0-----0-----0-----|-0-----------2-----------|-2h4-----4-----4-----4-----|
D|-----2-2---2-----2-4---2-|-----2-----2-----2-----2-|-----2-2---2-----2-4---2-|-------2-----2-----2-----2-|
A|---2-----2-----2-----2---|---2-----2-----2-----2---|---2-----2-----2-----2---|-----2-----2-----2-----2---|
E|-------------------------|-------------------------|-------------------------|---------------------------|
   |-3-| |-3-| |-3-| |-3-|   |-3-| |-3-| |-3-| |-3-|   |-3-| |-3-| |-3-| |-3-|     |-3-| |-3-| |-3-| |-3-|

                                                                                 {fade out...}
|-------------------------|-------------------------|----------------------------|-------------------------|
|-------------------------|-------------------------|----------------------------|-------------------------|
|-0-----------2-----------|-0-----0-----0-----0-----|-3-----2-----0h2p0----------|-------------------------|
|-----2-2---2-----2-4---2-|-----2-----2-----2-----2-|-----2-----2--------2-2---0-|-2---2-2---2-2---2-2---2-|
|---2-----2-----2-----2---|---2-----2-----2-----2---|---2-----2--------2-----2---|---2-----2-----2-----2---|
|-------------------------|-------------------------|----------------------------|-------------------------|
  |-3-| |-3-| |-3-| |-3-|   |-3-| |-3-| |-3-| |-3-|   |-3-| |-3-|    |-3-| |-3-|   |-3-| |-3-| |-3-| |-3-|

                            V
                              CMaj7/G                          G
|-------------------------|| |-------------------------|------|-------------------------|------| ||
|-------------------------||0|-------------0-----------|-0--/-|-------------0-----------|-0--/-|0||
|-----------------------2-|| |-------0-----------0-----|---/--|-------0-----------0-----|---/--| ||
|-2---2-2---2-2---2---3---|| |-----2-----2-----2-----2-|--/---|-----0-----0-----0-----0-|--/---| ||
|---2-----2-----2---------||0|---3-----3-----3-----3---|-/--0-|---2-----2-----2-----2---|-/--0-|0||
|-------------------------|| |-3-----------------------|------|-3-----------------------|------| ||
  |-3-| |-3-| |-3-| |-3-|      |-3-| |-3-| |-3-| |-3-|          |-3-| |-3-| |-3-| |-3-|

 Bm                               Em7                              Bm                            
|-------------------------|------|-------------------------|------|-------------------------|------|
|-------------3-----------|-0--/-|-------------3-----------|-0--/-|-------------3-----------|-0--/-|
|-------4-----------4-----|---/--|-------0-----------0-----|---/--|-------4-----------4-----|---/--|
|-----4-----4-----4-----4-|--/---|-----2-----2-----2-----2-|--/---|-----4-----4-----4-----4-|--/---|
|---2-----2-----2-----2---|-/--0-|---2-----2-----2-----2---|-/--0-|---2-----2-----2-----2---|-/--0-|
|-2-----------------------|------|-0-----------------------|------|-2-----------------------|------|
  |-3-| |-3-| |-3-| |-3-|          |-3-| |-3-| |-3-| |-3-|          |-3-| |-3-| |-3-| |-3-|        
 
 Em                               G                         {fade out...}
|-------------------------|------|-------------------------|---------------|
|-------------0-----------|-0--/-|-------------0-----------|---------------|
|-------0-----------0-----|---/--|-------0-----------0-----|-------0-------|
|-----2-----2-----2-----2-|--/---|-----0-----0-----0-----0-|-----0-----0-0-|
|---2-----2-----2-----2---|-/--0-|---2-----2-----2-----2---|---2-----2-----|
|-0-----------------------|------|-3-----------------------|-3-------------|
  |-3-| |-3-| |-3-| |-3-|          |-3-| |-3-| |-3-| |-3-|   |-3-| |-3-|   

RIFF (VI)
e|-------------------------|-------------------------|-------------------------|---------------------------|
B|-------------------------|-------------------------|-------------------------|---------------------------|
G|-0-----------2-----------|-0-----0-----0-----0-----|-0-----------2-----------|-2h4-----4-----4-----4-----|
D|-----2-2---2-----2-4---2-|-----2-----2-----2-----2-|-----2-2---2-----2-4---2-|-------2-----2-----2-----2-|
A|---2-----2-----2-----2---|---2-----2-----2-----2---|---2-----2-----2-----2---|-----2-----2-----2-----2---|
E|-------------------------|-------------------------|-------------------------|---------------------------|
   |-3-| |-3-| |-3-| |-3-|   |-3-| |-3-| |-3-| |-3-|   |-3-| |-3-| |-3-| |-3-|     |-3-| |-3-| |-3-| |-3-| 

|-------------------------|-------------------------|----------------------------|-------------------------|
|-------------------------|-------------------------|----------------------------|-------------------------|
|-0-----------2-----------|-0-----0-----0-----0-----|-3-----2-----0h2p0----------|-------------------------|
|-----2-2---2-----2-4---2-|-----2-----2-----2-----2-|-----2-----2--------2-2---0-|-2---2-2---2-2---2-2---2-|
|---2-----2-----2-----2---|---2-----2-----2-----2---|---2-----2--------2-----2---|---2-----2-----2-----2---|
|-------------------------|-------------------------|----------------------------|-------------------------|
  |-3-| |-3-| |-3-| |-3-|   |-3-| |-3-| |-3-| |-3-|   |-3-| |-3-|    |-3-| |-3-|   |-3-| |-3-| |-3-| |-3-|

|----------------------------|-------------------------|
|----------------------------|-------------------------|
|-3-----2-----0h2p0----------|-------------------------|
|-----2-----2--------2-2---0-|-2---2-2---2-2---2-2---2-|
|---2-----2--------2-----2---|---2-----2-----2-----2---|
|----------------------------|-------------------------|
  |-3-| |-3-|    |-3-| |-3-|   |-3-| |-3-| |-3-| |-3-|

OUTRO
                               {fade out...}                     //
e|-----------------------------|-------------------------|------|--|-------------------------|-------------0-||
B|-----------------------------|-------------------------|-0--/-|--|-------------------------|-------------0-||
G|-3-----2h3p2-----0-----0-----|-0-----0-----0-----0-----|---/--|--|-------------------------|-------------0-||
D|-----2--------2------2-----2-|-----2-----2-----0-----2-|--/---|r2|-2-----2-----2-----2-----|-2-----2-----2-||
A|---2--------2------2-----2---|---2-----2-----2-----2---|-/--0-|--|-----2-----2-----2-----2-|-----2-----2-2-||
E|-----------------------------|-------------------------|------|--|---0-----0-----0-----0---|---0-----0---0-||
   |-3-|    |-3-| |-3-| |-3-|    |-3-| |-3-| |-3-| |-3-|             |-3-| |-3-| |-3-| |-3-|   |-3-| |-3-| 



Thanks for viewing!
Добавлено: 03.12.2015
Другие материалы по этой песне:
  • Аккорды и текст

Страница создана 03.12.2015
http://primanota.ru/gustavo-santaolalla/last-of-us-main-theme-chords.htm
Привет, Гость.
Предлагаем пройти революционный курс по гитаре.
Подарок от PrimaNota.Ru, забирай!