PrimaNota.ru - самый крупный в мире бесплатный архив песенных текстов, аккордов, табулатур и нот


Gustavo Santaolalla - Deportationiguazu - таба, видео

Регистрация Запомнить меня
Войти через:  Facebook Google Twitter Vk Yandex Mail.ru

Gustavo Santaolalla - Deportationiguazu - таба, видео

Печатать
Просмотров: 406
------------------------------------------------------------------------------
        Gustavo Santaolalla - Babel Soundtrack - Deportation/Iguazu
-------------------------------------------------------------------------------
Tabbed by: darkraven
Email: darkraven90@web.de

Tuning: standard




Beginning-Part

   
|----------7---------5-----5h7------------------------------|
|------------------------------------5-----3------1----0----|
|9----7---------5-------------------------------------------|   2 times
|--------------------------------5-------4-----2-----2------|
|-----------------------------------------------------------|
|-----------------------------------------------------------|
 
Midd-Part (variate a bit)

|7-----7-----7-----7-----6-----7-----6-----7-----7-----7---------|
|--0-----0-----0-----0-----0-----0-----0-----0-----0-----0-------|
|----9-----9-----9-----9-----9-----9-----9-----9-----9-----9-----|
|----------------------------------------------------------------|
|----------------------------------------------------------------|
|----------------------------------------------------------------|

  
|3-----3-----3-----0-----2-------7-----7-----7-----7-----6-----7-|
|--0-----0-----0-----0-----0-------0-----0-----0-----0-----0-----|
|----4-----4-----4-----4-----4-------9-----9-----9-----9-----9---|
|----------------------------------------------------------------|
|----------------------------------------------------------------|
|----------------------------------------------------------------|
 
  
|----6-----7-----7-----7-----------fade out slowly---------------|
|0-----0-----0-----0-----0---------------------------------------|
|--9-----9-----9-----9-----9-------------------------------------|
|----------------------------------------------------------------|
|----------------------------------------------------------------|
|----------------------------------------------------------------|

End-Part

                                               fade out slow
|----------7---------5-----5h7------------------------------|
|------------------------------------5-----3------1----0----|
|9----7---------5-------------------------------------------| 
|--------------------------------5-------4-----2-----2------|
|-----------------------------------------------------------|
|-----------------------------------------------------------|
Добавлено: 04.05.2012
Другие материалы по этой песне:
  • Аккорды и текст

Страница создана 04.05.2012
http://primanota.ru/gustavo-santaolalla/deportationiguazu-chords.htm
Привет, Гость.
Предлагаем пройти революционный курс по гитаре.
Подарок от PrimaNota.Ru, забирай!