PrimaNota.ru - самый крупный в мире бесплатный архив песенных текстов, аккордов, табулатур и нот


Greg Howe - Extraction - таба, видео

Регистрация Запомнить меня
Войти через:  Facebook Google Twitter Vk Yandex Mail.ru

Greg Howe - Extraction - таба, видео

Печатать
Просмотров: 131
Авторы музыки: Greg Howe

As recorded by Greg Howe

Transcribed by  

          Gm7                Am7b13               Bbmaj7                Bbm7
      3 x 3 3 6 x          5 x 5 5 6 x          6 x 7 7 6 x          6 x 6 6 6 x

         Cmaj9                 Em9                Bbmaj13               C#7+9
      x 3 2 4 3 x          x 7 5 7 7 x          6 x 7 7 8 8          x 4 3 4 5 x

         G7b5                 C#m7                 Em11                 C#m11
      3 x 3 4 2 x          x 4 2 4 5 x          x 7 7 7 8 x          x 4 4 4 5 x

         Asus4               G#m7b13              G7sus4                Em9V
      x 0 2 2 3 x          4 x 4 4 5 x          3 x 5 5 6 x          0 7 5 7 7 x

        C7sus4                Bb/C                 B/C#
      x 3 3 3 6 x          x 3 3 3 3 x          x 4 4 4 4 x

Gtr I (E A D G B E) - 'Untitled'
Gtr II (E A D G B E) - 'Untitled'
Gtr III (E A D G B E) - 'Untitled'

  Q=150
                       C#m7
 4/4
  Gtr III
  H                     H    +W      +W                 W
                        |     |       |
                        /     /       /

  Gtr I
                        ~~~~~~~~~
  S  S S  S  E  S S  a  H    +W      +W      Wx4
|-------------------------|-------|-------|------------------|
|-------------------------|-------|-------|------------------|
|------9h12p11------------|-------|-------|------------------|
|-9h12---------12p9-12s14-|-(14)--|-(14)--|------------------|
|-------------------------|-------|-------|------------------|
|-------------------------|-------|-------|------------------|


     Q=135
                                  Em11                 C#m11
  Gtr II
  H.                       E.     S      Q.          S  S    H
                                  |                     |
                                  /                     /

  Gtr III
     E S  S S  E S S S S S S  S S S   S  S  S S  S   e  S E  S  S  +S  E  S
|-----------------------------------|---------------------------------------|
|-----------------------------------|--------------------------12-(12)-9----|
|-----------8h11-9---8---7----9---7-|---------------------9-11-----------11-|
|------9h11-------------------------|---10--9p7--------11-------------------|
|-----------------------------------|-----------10s=11----------------------|
|-----------------------------------|---------------------------------------|


                       W                                  W
   +S   S  E  S S S  S S  E S S  S S S   S S S S Q  S S S S +S  S S S
|------------11p9p7--------------------|----------------------------------|
|------12----------------11-9p8--------|----------------------------------|
|-(11)----11--------11p8--------10-8-6-|-8--------------------------------|
|--------------------------------------|---9p6------------6-(6)-8p4-------|
|--------------------------------------|-------8------6h8-----------6s====|
|--------------------------------------|----------------------------------|


  S S  E E E  S S S S S S S S   S  E  S S S S S S  S  S S S  S S S
|-----------------------------|-7-10--8p7--------------------------|
|-------------9p7-8-7s6-----8-|-----------8-7--------------------9-|
|--------9--------------8-7---|---------------9p8--------------9---|
|---8-11----------------------|-------------------10h11-8h9-11-----|
|-9---------------------------|------------------------------------|
|-----------------------------|------------------------------------|


   S S  E   S S S  S S  S  S S S S S  S
|-----------------------------------------|
|-12p9-11--10-9p8------10-----------------|
|-----------------12p9----11p7---9p8------|
|------------------------------------11---|
|-----------------------------------------|
|-----------------------------------------|


                          |-3-|
  S  S S S S S S S Q  S S S S S   S S S S  S T T S S S S S S S S S S
|-------------------------------|----------------6-9---7---5s6-9-----|
|-------------------------------|--------------7-----------------7---|
|-7-----------------------------|-----5-9----8-----------------------|
|---10-9p7-7p5----------------5-|-9-7--------------------------------|
|--------------7p3----------7---|------------------------------------|
|-----------------------7h8-----|------------------------------------|


              |-3--|
  S  S S S e  S  S S S  S   E e S S
|--------------------------------------|
|---12p7-------------------------------|
|--------9p7---------------------------|
|-------------7-12p9p7--------9-9p7----|
|----------------------10s=11----------|
|--------------------------------------|


  S S S S s  E  S  S S S S e S S    S S S  S  S S S S S S S S S S E
|--------------------------------|------------------------------------|
|-------5---10-10--7p5-----------|------8h11--9p7-8-6s5-8p5-----------|
|------------------------6h9-----|----9---------------------7p5-------|
|-6h7h9----------------7-------6h|=10---------------------------8p6---|
|--------------------------------|------------------------------------|
|--------------------------------|------------------------------------|


          ~
             |--3--|            |-----5-----|
   S E. a E  S  S  S S  S  S  S S  S  S  S  S
|---------------------------------------------|
|---------------------------------------10h12-|
|------------------------------------11-------|
|-10p8--6s8------------------10-9h12----------|
|-----------12p11p10-9h10h12------------------|
|---------------------------------------------|


          \1/      \1/               \1/        \1/
   a  E.  S    +E  E   +E   S  S E.  S      +E  E   +E  S S  a  E. S +E  E
|----------------------------------------|----------------------------------|
|-13s15--12---(12)-9---(9)----11-9-------|----------------------3--3-(3)-3--|
|--------------------------10-------10---|-(10)-7---(7)-2-4--4h=5--4-(4)-2--|
|------------------------------------9---|--(9)-6---(6)---------5--5-(5)-4--|
|----------------------------------------|----------------------------------|
|----------------------------------------|----------------------------------|


          AsuG#m7b1G7sus4
          |----3----|
   Q      Q  Q      Q   +Q     +W       +W
          |  |      |    |      |        |
          /  /      /    /      /        /

                    ~~
          |----3----|
  +E  S S Q  Q   a  Q   +Q     +H   H           W
|---------------------------|---------|--------------|
|-(3)-----------------------|---------|--------------|
|-(2)-4h6-7--9---9s10--(10)-|-(10)----|--------------|
|-(4)-----7--9---9s10--(10)-|-(10)----|--------------|
|---------------------------|---------|--------------|
|---------------------------|---------|--------------|


 4/4
  +W
   |
   /

  Gtr I
       H. E. s   +E  e E  e Q  E  S S   H.   E. S
|--------------|----------------------|-----------|
|--------------|---------/8----8h10---|-----------|
|------------9-|-(9)-7--------------9-|---------7-|
|--------------|----------------------|-----------|
|--------------|----------------------|-----------|
|--------------|----------------------|-----------|


                                      ~
  +S  S e H Q    H.  E. s   +S  S E a H   E.  a  S    +S  E. H.
|-------------|-----------|------------------------|------------|
|-------------|-----------|---------7s8--10--10s12-|-(12)-------|
|-(7)-9-------|------7--9-|-(9)-7-9----------------|------------|
|-------9-----|-----------|------------------------|------------|
|-------------|-----------|------------------------|------------|
|-------------|-----------|------------------------|------------|


  S S  S  S E  S  S  E. S +S  E.   H.  E S S   E e E  a  E  +Q   E  S S
|--------10p7--------------------|-----------|--------------------------|
|-----10---------12p10-----------|-----------|-------10s12-(12)-10-12---|
|---9---------11--------9-(9)----|-----------|---7--------------------9-|
|--------------------------------|-------7-9-|--------------------------|
|--------------------------------|-----------|--------------------------|
|--------------------------------|-----------|--------------------------|


  Q  E E a E E E e   S S  a  E  S  S  S  S e. S Q
|------------------|-------------------------------|
|--------7s8-------|---8-10s12-11p10---------------|
|----7-9-------7-9-|-----------------12-------9----|
|------------------|--------------------12-9-------|
|------------------|-------------------------------|
|------------------|-------------------------------|


  H.  E S S   S e S  S e  S S e S Q
|-----------|------------------------|
|-----------|-------12---10p7--------|
|---------9-|---9------9--------7----|
|-------9---|-----9-----------9------|
|-----------|------------------------|
|-----------|------------------------|


  Q E  S  S S  S S  S  S S S  S    S S S  S  S S E Q S S S  S
|--------10p7-------------------|-----------------------------|
|-----10------10p7-12-11p8-9----|-----------------------------|
|----------------------------10-|-12p7------------------------|
|-------------------------------|------9---------------7-9-11-|
|-------------------------------|--------11p10-8h9------------|
|-------------------------------|-----------------------------|


  AsuG#mG7sus4          Em9V
  Gtr II
  |--3---|
  Q  Q   Q  +Q.       S  S    +W                          +W
  |  |   |   |           |     |                           |
  /  /   /   /           /     /                           /

  |--3---|
  Q  Q   Q  +Q    +E.    S    +E  S S +S  S  E E E +Q      Wx7
|--------------------------|----------------------------|---------|
|--------------------------|----------------------------|---------|
|-7--9--10-(10)--(10)---11-|-(11)-9-7-(7)---------------|---------|
|--------------------------|--------------9-11----------|---------|
|--------------------------|-------------------9s7-(7)--|---------|
|--------------------------|----------------------------|---------|


                          Em9
                           W
                           |
                           /

                           ~~~
  H    S S S  S  E  S S    E.  S E S  S  E   S  S S  S e
|-----------------------|--------------------------------|
|-----------------------|--------------------------------|
|----------9h12p11------|--------------------------------|
|--------9---------12p9-|-12---9-----------[12]p9--------|
|-----------------------|----------7h10h12----------10p7-|
|-----------------------|--------------------------------|


                                         C7sus4
  +W                        +Q.           E  +H
   |                         |            |   |
   /                         /            /   /

                             ~~~              ~~~~
   H    S S S  S  S  E  S    E.  a S +E   E  +H
|-------------------------|----------------------|
|-------------------------|----------------------|
|-----------9h12-10s11----|--7---7s9-(9)-10-(10)-|
|---------9-------------9-|--------------10-(10)-|
|-------------------------|----------------------|
|-------------------------|----------------------|


  Em9
  W                       +W
  |                        |
  /                        /

                           ~~
  H    S S S  S  E  S S    E S S S e  S  E   S  S S  S e
|-----------------------|--------------------------------|
|-----------------------|--------------------------------|
|----------9h12p11------|----9---------------------------|
|--------9---------12p9-|-12---9-----------[12]p9--------|
|-----------------------|----------7h10h12----------10p7-|
|-----------------------|--------------------------------|


                                          Bb/C         B/C#
  +W                           +Q.         E.           E.  +Q
   |                            |          |            |    |
   /                            /          /            /    /

                                ~~~             ~~~~    ~~~~~~~~~
   H    S S S  S   E  S S    a  E.  S +E   e   +S    a  E.  +Q
|-------------------------|---------------------------------------|
|-------------------------|---------------------------------------|
|-----------9h12--11------|---------9-(9)-10--(10)--10s12--(12)\--|
|---------9----------12p9-|-11s12---------------------------------|
|-------------------------|---------------------------------------|
|-------------------------|---------------------------------------|


  Em9
  W                         +W
  |                          |
  /                          /

  H     S S S  S  S  E  S    E   S S S e  S  E   S  S S  S e
|-------------------------|----------------------------------|
|-------------------------|----------------------------------|
|-----------9h12-10s11----|-[9]------------------------------|
|---------9-------------9-|-----12p9-----------[12]p9--------|
|-------------------------|------------7h10h12----------10p7-|
|-------------------------|----------------------------------|


                                         C7sus4
  +W                        +Q.           E  +H
   |                         |            |   |
   /                         /            /   /

                                                   \1/
                             ~~~                   ~~~~~
   H    S S S  S   E  S S    E.  S +E  a  E  +E   +Q.
|-------------------------|------------------------------|
|-------------------------|------------------------------|
|-----------9h12--11------|--7---9-(9)-9s10-(10)-(10)----|
|---------9----------12p9-|------------------------------|
|-------------------------|------------------------------|
|-------------------------|------------------------------|


  Em9
  W                        +W
  |                         |
  /                         /

                            ~~
  H    S S S  S  S  S  E    E  S S S S  S  S S  e  S  S  S e
|------------------------|-----------------------------------|
|------------------------|-----------------------------------|
|----------9h12-10s11----|--7--9-----------------------------|
|--------9-------------9-|-------9-----------9h12-[7]--------|
|------------------------|-----------7h10h12------------10p7-|
|------------------------|-----------------------------------|


                                        Bb/C      B/C#
  +W                         +Q.         E.        E   +Q
   |                          |          |         |    |
   /                          /          /         /    /

                              ~~~             ~~~~
   H    S S S  S   E  S S     E.  S +E   e   +S    E.  +S  a  E.
|-------------------------|---------------------------------------|
|-------------------------|--------------------------------9s10---|
|-----------9h12--11------|-------9-(9)-10--(10)--12--(12)--------|
|---------9----------12p9-|--12-----------------------------------|
|-------------------------|---------------------------------------|
|-------------------------|---------------------------------------|


    Q=140
  Cmaj9
 4/4
  Gtr II
  W                  +W
  |                   |
  /                   /

  GtGtr I
     ~~~~~
                                                                  |--3--|
     H.      S  E.    S  S  E       S  S  S  S  S  S  S  S  S  S  S  S  S
|------------------|-10h12------------12-------------------------------10--|
|---13b15---11s12--|-------11b11.5-12----12p10----12p10-------10h11h12-----|
|------------------|---------------------------------------11--------------|
|------------------|---------------------------12-------12-----------------|
|------------------|-------------------------------------------------------|
|------------------|-------------------------------------------------------|


  +W
   |
   /

   |------6-------|  |------6-------|  |------6-------|  |---6---|
   S  S  S  S  S  S  S  S  S  S  S  S  S  S  S  S  S  S  S  S  S E.
|-12p10--------------------------------------------------------------|
|-------12-11h12p10--------------------------------------------------|
|-------------------12p11-12p11----------------11h12h14p12p11--------|
|-------------------------------14p12p10h12h14----------------14-----|
|--------------------------------------------------------------------|
|--------------------------------------------------------------------|


  +W
   |
   /

                            |-3--|
   S  S S  S S  e  S  S e S E  E E
|----------------------------------|
|----------------------------------|
|------------9h11-[9]---9----------|
|-------9h10--------------8h9------|
|----10-----------------------10-7-|
|----------------------------------|


  Em9
   W                                +W
   |                                 |
   /                                 /

           \1/
                    |-3--|
   a  E.  +E.  S  S E E  E S e  S    S e  S S S e Q S S e
|---------------------------------|-------------------------|
|---------------------------------|------10p8-6-----7p6-5---|
|--------------------------9p7----|----7--------8-----------|
|-------------------8h9-11-----11s|=12----------------------|
|-10s12--(12)--9h10---------------|-------------------------|
|---------------------------------|-------------------------|


  +W                        +W
   |                         |
   /                         /

   ~~~
                                     |---3----|            |-3-|
   E S S E S S S e. S e s   +S  E S +S    +S  S E S e. S S S S S
|-------------------------|---------------------------------------|
|-------------------------|-----2---------------------------------|
|--7p4-----5h6------3h4-3-|-(3)-2-2-(2)b3r(2)p0-2-----------------|
|------7---7---7-5--5-----|-----------------------5p2--0h2p0h2p0h=|
|-------------------------|---------------------------------------|
|-------------------------|---------------------------------------|
   Q.      E   Q    E E


  Cmaj9
  W
  |
  /

  |-3-| |-3-| |-3-|
  S S S S S S S S S S S +S  E. Q
|---------------------------------|
|-------------------2s3-(3)-------|
|-------------------3s4-(4)-------|
|-2p0h2p0h2p0h2p0h2-1s2-(2)-------|
|---------------------------------|
|---------------------------------|


  +W
   |
   /

   S S S S  S S  S S S  S  S S S  S  S  S
|-----------------------------------10-13-|
|-------------------------10p8---11-------|
|------------------9p7h11-----------------|
|-------------7-11------------------------|
|----6-7-9s10-----------------------------|
|-----------------------------------------|


  +W
   |
   /

   S  S  S  S  S  S  S  S  S S  S  a  S  S  S  S  S
|----13s14-10-14p13p10----12p9-10-13s14-10-14p13----|
|----------------------12------------------------15-|
|---------------------------------------------------|
|---------------------------------------------------|
|---------------------------------------------------|
|---------------------------------------------------|


  +W
   |
   /

   S  S  S  S  S  S  S  S  S  S  S  S S S  S S
|----------------------------------------------|
|-12-17p13-15-14p11-12p11----------------------|
|-------------------------14p13p12-14--------9-|
|---------------------------------------9h12---|
|----------------------------------------------|
|----------------------------------------------|


  Em9
   W
   |
   /

   S  S E S  S  S  S  S  S  S  S  S  S  S  S
|--------------------------------12-13-14p12--|
|-----------------12-16p12----14--------------|
|-12p11-----12h14----------15-----------------|
|---------------------------------------------|
|---------------------------------------------|
|---------------------------------------------|


  +W
   |
   /

                                            |--3--|         |--3--|
   S  S  S  S  S  T  T  T  T  T  T   S   S  S  S  S  S  S   S  S  S
|-------------------------------------------------------------------|
|-14-17p16p15-14----------------------------------------------------|
|----------------14-12h16p14p12h14--12s=11h12h14p11--------------12-|
|---------------------------------------------------14p12h=14h16----|
|-------------------------------------------------------------------|
|-------------------------------------------------------------------|


  +W
   |
   /

                                                 T              T
   |--3--|          |--3--|         |--------6--------|   |------6-------|
   S  S  S  S    S  S  S  S   S  S  S   S  S  S  S    S   S  S  S  S  S  S
|---------------------------------------------------h15--16h18-20p18p16p15-|
|-------------------------------------h13-14h16-18-------------------------|
|-11h12h14p11---------------h12-13h15--------------------------------------|
|--------------h14-12h14h16------------------------------------------------|
|--------------------------------------------------------------------------|
|--------------------------------------------------------------------------|


  +W
   |
   /

      T        T                                    ~~     ~~~
      |------6-------|   |--3--|
      S  S  S  S  S  S   S  S  S  S  S  S  S  S  S  E   S  S
|------------------------------------------------------------|
|----18p16p15------------------------------------------------|
|-------------17p15p13--18p16p14-------------15----14-----15-|
|--------------------------------17p15-----------------------|
|--------------------------------------16h17----17-----17----|
|------------------------------------------------------------|


  Bbmaj13
    W
    |
    /

 ~~~~~~
   +S  E S S S S S S S S S S S S S
|-----------------------------------|
|-----------------------------------|
|-(15)-----7h9p7-5------------------|
|------x-x-----------8p5-7p5---5----|
|----------------------------9---9--|
|-----------------------------------|


  +W
   |
   /

   S S a S S S  S S  S S  S  S  S  S S  S S
|-------------------------------------------|
|-------------------------------------------|
|---------------------------10h14s12-9------|
|-----------------8-12-8h12------------10p8s|
|--8-7-6h7-6-7-10---------------------------|
|-------------------------------------------|


  C#7+9
  W
  |
  /

                      |-3--|  |-3--|
  S  S S  S S  S S  S E  E E  e e  e
|--------------------------------------|
|------9-14p9--------------------------|
|-------------11---13p9----------------|
|-9h13-----------9------11------9-11---|
|--------------------------9-11--------|
|--------------------------------------|


  G7b5                          Cmaj9
   W                             W
   |                             |
   /                             /

                                    ~~~
               |--3--| |-3--|
   a  Q..   S  E  E  E E  E E    a  H.      Q
|-----------------------------|-----------------|
|----------------12p10p8-13p8-|-13s15-----------|
|-----------9s10--------------|-----------------|
|-11s12-----------------------|-----------------|
|-----------------------------|-----------------|
|-----------------------------|-----------------|


  Wx19
|---------|
|---------|
|---------|
|---------|
|---------|
|---------|


  W
  H   S  S  S  S  S  S  S  S
|----------15p12-17p12-------|
|-------16-------------15----|
|-------------------------12-|
|----------------------------|
|----------------------------|
|----------------------------|


  Cmaj9
  Gtr II
   W
   |
   /

   S  S  S  S   S  S  S  S  S  S  S  S S  S  S  a  S
|-------------------------------------------------------|
|-18p14-------------------------------------------------|
|-------15-----12h14p12---------------------------------|
|----------13-----------14-12h17p14p12---14p12----------|
|----------------------------------------------12h14----|
|-------------------------------------------------------|


  +W
   |
   /

   ~~~
                          |---3----|
   E.  S E  S  S  e  S  S E  a  E  E
|------------------------------------|
|-------------------15-12------------|
|----------------14---------17s19-21-|
|-----12---12s14---------------------|
|-12---------------------------------|
|------------------------------------|


  +W
   |
   /

   e  S  S S  e  S  S  S  S  S  S  S  S  S
|----22p19---17h19-15p12-17p12--------------|
|-22---------------------------15----18p14--|
|---------------------------------12--------|
|-------------------------------------------|
|-------------------------------------------|
|-------------------------------------------|


                                                     Em9
  +W                                                  W
   |                                                  |
   /                                                  /

                                                      ~~~~~~~
   S  S  S  S  S  S  S  S  S  S  S  S   S   E.        H.        +Q
|--------------------------------------18--18------|-18--------(18)\----|
|-------------13h16p14-------17-15h18--18--18b18.5-|-18b18.5---(18)\----|
|-15-------------------14h17-----------------------|--------------------|
|----13h17h18--------------------------------------|--------------------|
|--------------------------------------------------|--------------------|
|--------------------------------------------------|--------------------|


  +W                              +W
   |                               |
   /                               /

  Gtr I
   S  e  S E  e S  S  E  S E  s    E  S  S  S  e.   S S S  S S S  a  E
|-18h19-17---15---18h19-17---15-|-----------------------------------------|
|-------17---15---------17---15-|-----------------------------------------|
|-------------------------------|----14-14-14-12---12-x-x-12-x-x--9s10----|
|-------------------------------|----14-14-14-12---12-x-x-12-x-x--8s=9----|
|-------------------------------|-----------------------------------------|
|-------------------------------|-----------------------------------------|


  +W
   |
   /

      +S  S a  S S  S S E +E  a  E S  E  S
|------------------------------------------|
|---------------------------------------12-|
|----(10)s9-9s13s9s13s9s8-(8)-8s13---14----|
|-----(9)s8-8s12s8s12s8s7-(7)-7s12---12----|
|------------------------------------------|
|------------------------------------------|


  Cmaj9
   W                 +W
   |                  |
   /                  /

   ~~~
   H.      S  E.      S  e  S  S     S  E Q.   S  S
|------------------|-18-19-17-17b19r15--------18-19--|
|-15---------20b22-|-------------------17------------|
|-14---------------|---------------------------------|
|------------------|---------------------------------|
|------------------|---------------------------------|
|------------------|---------------------------------|


   +W
    |
    /

   +S   S      S  S  e E Q  a  E  E
|-(19)-17pb19r17-15-----------12-12-|
|-------------------17-----10h11-10-|
|-----------------------------------|
|-----------------------------------|
|-----------------------------------|
|-----------------------------------|


                           Em9
  +W                       W
   |                       |
   /                       /

          ~~
   S S  E Q.   E S S S S   Q  E S S +S  S e E S S
|------------------------|------------------------|
|----------------6s7-7-7-|------6s7-(7)-7-7---x-x-|
|-12-9-12-9------6s7-7-7-|------6s7-(7)-7-7---x-x-|
|-12-9-12--------6s7-7-7-|------6s7-(7)-7-7---x-x-|
|------------------------|------------------------|
|------------------------|------------------------|


  +W
   |
   /

     S S S S S S E a  S  S  S  S S S  S S
|-----------------------------------------|
|----x-x-6s7-7-7---9s10-10-10-10-x-x-10-x-|
|----x-x-6s7-7-7--------------------------|
|----x-x-6s7-7-7--------------------------|
|-----------------------------------------|
|-----------------------------------------|


  +W
   |
   /

   S  S S S  a  S  S  S  S S S S S  +S   S  S  S
|------------------------------------------------|
|--x-10-x-x--9s10-10-10-10-x-x-6s7--(7)-------12-|
|-----------10s11-11-11-11-----6s7--(7)-11h13----|
|------------------------------6s7--(7)----------|
|------------------------------------------------|
|------------------------------------------------|


  +W
   |
   /

                  |--3--|     |--3--|
   S  S  S  S  E  S  S  S  E  S  S  S  S  S  S S
|-10h14p10---------------------------------------|
|----------12-10-15p12p10----12p10---------------|
|-------------------------11-------11p=9-14p11p9-|
|------------------------------------------------|
|------------------------------------------------|
|------------------------------------------------|


  Bbmaj13
   W
   |
   /

   ~~         ~~~~~~~
   Q  a  E.   S  +Q    S  S E
|--------------------------------|
|-----8s10-----------------------|
|------------11-(11)-------------|
|-12---------------------12------|
|--------------------------------|
|--------------------------------|


  +W
   |
   /

   E e E  S S S S S  S S S S S
|------------------------------|
|--------10-8p7----------------|
|----7-7--------9p7-11p9p7-----|
|--------------------------9p7-|
|------------------------------|
|------------------------------|


  C#7+9                                          G7b5
   W                                             W
   |                                             |
   /                                             /

                                                      ~~~~~     ~~~~~~~~
                                       |--3--|
   S  S S  S S  S S S  S S S  S  S  S  S  S  S   a a  Q    a a  H.
|----------------------------------------11h13-|-----13b14-----13b14.5\-|
|-------------------------------11h14p13-------|---x---------x----------|
|----11p8------------------8h11----------------|-x---------x------------|
|-11------11-8h11p8------9---------------------|------------------------|
|-------------------9h11-----------------------|------------------------|
|----------------------------------------------|------------------------|


  E S  S S e S S S  S  S  e  S  S
|---------------------------------|
|---------------------------------|
|------------------------10-------|
|----------9-9--------10----10h13-|
|--------9-------9h12-------------|
|---8h11--------------------------|


 4/4                                     2/4
                                     ~~~~~~~~~~
   S  e  S S  S  S  S  e E  S  S  S  S     +S  S  S  S S S  S S
|---------------------13---12p11--------|------------------------|
|----12-12---------13------------13p12--|-(12)---11-10p9p8-------|
|-11---------11h14----------------------|------------------10-9--|
|---------------------------------------|------------------------|
|---------------------------------------|------------------------|
|---------------------------------------|------------------------|


 4/4
  E e E  e Q  E.  S   H.      E. S   +S  S e H    Q
|-------------------|--------------|-----------------|
|-------/8----------|--------------|-----------------|
|---7-------------9-|------------7-|-(7)-9-----------|
|-------------------|--------------|-------9---------|
|-------------------|--------------|-----------------|
|-------------------|--------------|-----------------|


                            ~
  H.     a E. s   +S  S E a H     E  a  E      W
|---------------|-------------------------|------|
|---------------|---------7s8----10-10s12-|------|
|--------6s7--9-|-(9)-7-------------------|------|
|---------------|-------9-----------------|------|
|---------------|-------------------------|------|
|---------------|-------------------------|------|


  S S  S  S E  S  S  E. S +S  E.   H.      E S S   E e E  a  E  +Q    E  S S
|--------10p7--------------------|---------------|---------------------------|
|-----10---------12p10-----------|---------------|-------10s12-(12)--10-12---|
|---9---------11--------9-(9)----|---------------|---7---------------------9-|
|--------------------------------|-----------7-9-|---------------------------|
|--------------------------------|---------------|---------------------------|
|--------------------------------|---------------|---------------------------|


  Q  E E a E E E e   S S  a  E  S  S  S  S e. S Q
|------------------|---------------------------------|
|--------7s8-------|---8-10s12-11p10-----------------|
|----7-9-------7-9-|-----------------12-------9------|
|------------------|--------------------12p9---------|
|------------------|---------------------------------|
|------------------|---------------------------------|


                                     ~~~
  H    E a E +S   e S    S  S  S  S  E. S  S  S  E  +S  S S S
|---------------------|---------------------------------------|
|---------------------|-------10h15p13--9----12p10-(10)-6---9p|
|---------------------|----11-------------11--------------8---|
|--------5s7-(7)-12-9h|=12------------------------------------|
|---------------------|---------------------------------------|
|---------------------|---------------------------------------|


  E. S S  S  S  S S  S S  S  S S S  S
|--------------10p7---------------------|
|-7---------10------10p8-12p11-8h9------|
|----9p7h11------------------------10---|
|---------------------------------------|
|---------------------------------------|
|---------------------------------------|


                                 2/4        4/4
                                         ~~~~~~~~~
                                  |--3---|
   S S S  S  S S E Q   E   S  S   Q Q a  Q    +W      Wx3
|-------------------------------|----------|--------|--------|
|-------------------------------|----------|--------|--------|
|-12p7--------------------------|-7-9-9s10-|-(10)---|--------|
|------9-------------------9h11-|-7-9-9s10-|-(10)---|--------|
|--------11p10p8-9----12\-------|----------|--------|--------|
|-------------------------------|----------|--------|--------|


    Gm7   Am7b13 BbmajAm7b13 Gm7  Am7b13 Bbm7  Am7b13
    Gtr II
    H     H      H    H      H    H      H     H
    |     |      |    |      |    |      |     |
    /     /      /    /      /    /      /     /

        W             W           W          W    9x
||-------------|-----------|-----------|----------||
||o------------|-----------|-----------|---------o||
||-------------|-----------|-----------|----------||
||-------------|-----------|-----------|----------||
||o------------|-----------|-----------|---------o||
||-------------|-----------|-----------|----------||


  Gm7    Am7b13 BbmajAm7b13 Gm7  Am7b13 Bbm7    Am7b13
  H      H      H    H      H    H      H       H
  |      |      |    |      |    |      |       |
  /      /      /    /      /    /      /       /

      W              W           W        H.  a E  E
|-------------|-----------|-----------|-----------------|
|-------------|-----------|-----------|-----------------|
|-------------|-----------|-----------|-------6s7-10----|
|-------------|-----------|-----------|-----------------|
|-------------|-----------|-----------|-----------------|
|-------------|-----------|-----------|-----------------|


    Gm7                   Am7b13         Bbmaj7        Am7b13
    H                     H               H            H
    |                     |               |            |
    /                     /               /            /

            \0.5/
                        ~~~~~~~~~         ~~~~~~~~~~~        ~~
       |------3------|        |--3---|
    a  Q a  Q      E E  Q    +E   E  E    Q      +E  T T T T Q.   E
||-------------------------------------|----------------------------|
||o-8s10-8s10-----10p8-10---(10)-10h11-|-11b13--(11)-8h9p8p6-8----6-|
||-------------------------------------|----------------------------|
||-------------------------------------|----------------------------|
||o------------------------------------|----------------------------|
||-------------------------------------|----------------------------|


  Gm7                Am7b13           Bbm7                    Am7b13
  H                   H                H                       H
  |                   |                |                       |
  /                   /                /                       /

          \0.5/
                      ~~~~~~~~         ~~~~~~~~~~~             ~~~
     |------3------|       |--3---|
  a  Q a  Q      E E  Q   +E   E  E    Q      +E   T  T  T  T  Q.    E     8x
|-----------------------------------|--------------------------------------||
|-8s10-8s10-----10p8-10--(10)-11-13-|-14b16--(14)-13h14p13p11-13----11----o||
|-----------------------------------|--------------------------------------||
|-----------------------------------|--------------------------------------||
|-----------------------------------|-------------------------------------o||
|-----------------------------------|--------------------------------------||


Duration Legend
---------------
W - whole; H - half; Q - quarter; E - 8th; S - 16th; T - 32nd; X - 64th; a - acciaccatura
+ - note tied to previous; . - note dotted; .. - note double dotted
Uncapitalized letters represent notes that are staccato (1/2 duration)
Irregular groupings are notated above the duration line
Duration letters will always appear directly above the note/fret number it represents the
duration for.  Duration letters with no fret number below them represent rests.  Multi-
bar rests are notated in the form Wxn, where n is the number of bars to rest for.  Low
melody durations appear below the staff

Tablature Legend
----------------
 h   - hammer-on
 p   - pull-off
 b   - bend
 pb  - pre-bend
 r   - bend release (if no number after the r, then release immediately)
 /\  - slide into or out of (from/to "nowhere")
 s   - legato slide
 S   - shift slide
  - natural harmonic
[n]  - artificial harmonic
n(n) - tapped harmonic
 ~   - vibrato
 tr  - trill
 T   - tap
 TP  - trem. picking
 PM  - palm muting
\n/  - tremolo bar dip; n = amount to dip
 \n  - tremolo bar down
 n/  - tremolo bar up
/n\  - tremolo bar inverted dip
 =   - hold bend; also acts as connecting device for hammers/pulls
 <>  - volume swell (louder/softer)
 x   - on rhythm slash represents muted slash
 o   - on rhythm slash represents single note slash

Misc Legend
-----------
 |  - bar
||  - double bar
||o - repeat start
o|| - repeat end
*|  - double bar (ending)
 :  - bar (freetime)
 $  - Segno
 &  - Coda
Tempo markers -  = BPM(8/16=s8/s16), where s8 = swing 8ths, s16 = swing 16ths


Добавлено: 26.03.2012
Другие материалы по этой песне:

Страница создана 26.03.2012
http://primanota.ru/greg-howe/extraction-chords.htm
Привет, Гость.
Предлагаем пройти революционный курс по гитаре.
Подарок от PrimaNota.Ru, забирай!