PrimaNota.ru - самый крупный в мире бесплатный архив песенных текстов, аккордов, табулатур и нот


Greg Howe - Lucky Seven - таба, видео

Регистрация Запомнить меня
Войти через:  Facebook Google Twitter Vk Yandex Mail.ru

Greg Howe - Lucky Seven - таба, видео

Печатать
Просмотров: 105
Уроки эстрадного вокала в Санкт-Петербурге
"Lucky Seven" by Greg Howe, Victor Wooten, Dennis Chambers

Intro Riff:

E|------------------------------------------------|
B|-----------------------5-------5h6--------------|
G|---------------5----7----8P7--------------------|
D|--------6----6---6-----------7-----7------5--5--|
A|---5--8---8---------------------------6h7-------|
E|-6----------------------------------------------|

E|----------------------------------------------------|
B|----------------------------------------------------|
G|-----------------------7p6---------5-8p7------------|
D|-----5-6-8p6p5-----5-8-----7-----6-------9-6--------|
A|-7h8-----------8-7-----------9-8-------------7-6----|
E|----------------------------------------------------|
Добавлено: 27.05.2016
Другие материалы по этой песне:
  • Аккорды и текст

Страница создана 27.05.2016
http://primanota.ru/greg-howe/lucky-seven-chords.htm
Привет, Гость.
Предлагаем пройти революционный курс по гитаре.
Подарок от PrimaNota.Ru, забирай!