PrimaNota.ru - самый крупный в мире бесплатный архив песенных текстов, аккордов, табулатур и нот


Greg Howe - Crack It Way Open - таба, видео

Регистрация Запомнить меня
Войти через:  Facebook Google Twitter Vk Yandex Mail.ru

Greg Howe - Crack It Way Open - таба, видео

Печатать
Просмотров: 73
Уроки эстрадного вокала в Санкт-Петербурге
"Crack It Way Open" by Dennis Chambers, Victor Wooten, Greg Howe  

::HEAD::

E|--------------------------------------------------------------5--|  
B|-------------------------------------------------7/5--3p2/1\2----|
G|-9-8-7-9-5/6------------6-7-5-6----4---5-----4-7-----------------|
D|-------------7-------7-----------7---7---4h5---------------------|
A|--------------7----7---------------------------------------------|
E|----------------5------------------------------------------------|


E|---------------------------------------|
B|-5-8~~~6-8--------------------------7--|
G|-----------8-6-------7-----7------5----|
D|---------------7-5h6-------------------|
A|-----------------------6-5---5h6-------|
E|---------------------------------------|


Someone else should take a "crack" at it :)

Добавлено: 23.12.2015
Вам также может быть интересно:
Другие материалы по этой песне:
  • Аккорды и текст

Страница создана 23.12.2015
http://primanota.ru/greg-howe/crack-it-way-open-chords.htm
Привет, Гость.
Предлагаем пройти революционный курс по гитаре.
Подарок от PrimaNota.Ru, забирай!