PrimaNota.ru - самый крупный в мире бесплатный архив песенных текстов, аккордов, табулатур и нот


Greg Howe - A Delicacy - таба, видео

Регистрация Запомнить меня
Войти через:  Facebook Google Twitter Vk Yandex Mail.ru

Greg Howe - A Delicacy - таба, видео

Печатать
Просмотров: 137
A DELICACYAs recorded by Greg Howe(From the 2003 
EXTRACTION)Transcribed by Andrew LongMusic by Greg HoweGtr I (E A D G B E) - 'Greg Howe'

 4/4
  Gtr I
  E E S S S S S S S S S S S S    S S S S S  S S S  S S S S S  S S S
|---------0-----0---0-----0---|----0---0------0------0---0------0------|
|-----0-----0---------0-----0-|----------0------0----------0------0----|
|-------6---------------6-----|------------11----------------11--------|
|---7-------------7-----------|------9-----------------9---------------|
|-9-----------9---------------|-11----------------11-------------------|
|-----------------------------|----------------------------------------|


  S S S S S S S S S S S S S S S S    S S S S S  S S S S S S S S S E
|---0---0-----0-----0---0-----0---|----0---0------0-----0---0-----0----|
|---------0-----0---------0-----0-|----------0------0---------0--------|
|-----------6---------------6-----|------------11----------------------|
|-----7---------------7-----------|------9----------------------7------|
|-9---------------9---------------|-11--------------------6------------|
|---------------------------------|-------------------7----------------|


    E S  S S S S S S S S S S S S S   S S S S S S S S S S S S S S S S
||---------0---0-------0-----0---0-|-------0-----0-----0---0-----0------||
||o---9s10---9---0---7---7-----7---|-----4---4-----0---------0-----0---o||
||---------------------------------|---4--------------------------------||
||---------------------------------|---------------------4--------------||
||o----------------6---------------|-4-------------------------4-------o||
||--0----------------------7-------|-----------4-----5------------------||


    S S S S S  S S S S S  S S  S S S S   S S S S S S S S S S S S S S S S
||--------0------0----------0------0---|-------0-----0---------0-----0-----||
||o-----9---9------0-----10---10-----0-|-----4---4-----0-----7---7-----0--o||
||-------------------------------------|---4-------------------------------||
||----9----------------9---------------|-------------------9---------------||
||o-----------11-----9-----------------|-2-------------------------6------o||
||--9----------------------------9-----|-----------4-----7-----------------||


  S S S S S S S S  S S S S S S S S   S S S S S  S S S  S S S  S S S S S
|-------0-----0------0-----0-----0-|-------0------0------0------0-----0---|
|-----8---8-----8------8-----8-----|-----9---9------9------9------9-------|
|----------------------------------|--------------------------------------|
|---9-------9-----12-----9---------|---9-------11-----13-----11-----------|
|----------------------------------|--------------------------------------|
|-8----------------------------8---|-9------------------------------9-----|


  S S S S S S S S  S S S S S S S S   S S S S S  S S S  S S S  S S S E
|-------0-----0------0-----0-----0-|-------0------0------0------0--------*|
|-----8---8-----8------8-----8-----|-----9---9------9------9------9------*|
|----------------------------------|-------------------------------------*|
|---9-------9-----12-----9---------|---9-------11-----13-----11----------*|
|----------------------------------|-------------------------------------*|
|-8----------------------------8---|-9-----------------------------------*|



Duration Legend
---------------
W - whole; H - half; Q - quarter; E - 8th; S - 16th; T - 32nd; X - 64th; a - acciaccatura
+ - note tied to previous; . - note dotted; .. - note double dotted
Uncapitalized letters represent notes that are staccato (1/2 duration)
Irregular groupings are notated above the duration line
Duration letters will always appear directly above the note/fret number it represents the
duration for.  Duration letters with no fret number below them represent rests.  Multi-
bar rests are notated in the form Wxn, where n is the number of bars to rest for.  Low
melody durations appear below the staff

Tablature Legend
----------------
 h   - hammer-on
 p   - pull-off
 b   - bend
 pb  - pre-bend
 r   - bend release (if no number after the r, then release immediately)
 /\  - slide into or out of (from/to "nowhere")
 s   - legato slide
 S   - shift slide
 - natural harmonic
[n]  - artificial harmonic
n(n) - tapped harmonic
 ~   - vibrato
 tr  - trill
 T   - tap
 TP  - trem. picking
 PM  - palm muting
\n/  - tremolo bar dip; n = amount to dip
 \n  - tremolo bar down
 n/  - tremolo bar up
/n\  - tremolo bar inverted dip
 =   - hold bend; also acts as connecting device for hammers/pulls
 <> - volume swell (louder/softer)
 x   - on rhythm slash represents muted slash
 o   - on rhythm slash represents single note slash

Misc Legend
-----------
 |  - bar
||  - double bar
||o - repeat start
o|| - repeat end
*|  - double bar (ending)
 :  - bar (freetime)
 $  - Segno
 &  - Coda
Tempo markers -  = BPM(8/16=s8/s16), where s8 = swing 8ths, s16 = 
16ths

** Generated using Power Tab Editor by Brad 
  The Official Power Tab Web Site
Добавлено: 29.06.2012
Другие материалы по этой песне:

Страница создана 07.03.2012
http://primanota.ru/greg-howe/a-delicacy-chords.htm
Привет, Гость.
Предлагаем пройти революционный курс по гитаре.
Подарок от PrimaNota.Ru, забирай!