PrimaNota.ru - самый крупный в мире бесплатный архив песенных текстов, аккордов, табулатур и нот


Gossip - Standing In The Way Of Control - текст песни, таба, бас-таба, видео

Регистрация Запомнить меня
Войти через:  Facebook Google Twitter Vk Yandex Mail.ru

Gossip - Standing In The Way Of Control - текст песни, таба, бас-таба, видео

Печатать
Просмотров: 203
Авторы музыки: Nathan Howdeshell, Hannah Blilie, Beth Ditto
Авторы текста: Nathan Howdeshell, Hannah Blilie, Beth Ditto
-----------------------------------------------------------------------------
              STANDING IN THE WAY OF CONTROL - The Gossip
-----------------------------------------------------------------------------
Tabbed by: Chapman Li (aka SonicYouthRules)
Email: chapman_li@hotmail.com

Tuning: Standard


Great song, surprised no-one has tabbed it yet. Don't ask me if they play this version 
as I haven't the foggiest, I just know this sounds pretty
accurate to me.

If you like, plz rate!


INTRO

e|-------------------------------------------------------------------------|
B|-----------------------------------X-------------------------------------|
G|--5-5-5-5-5-5-5-5-5-5-5-5-5-5-5-5--X-------------------------------------|
D|--7-7-7-7-7-7-7-7-7-7-7-7-7-7-7-7--X--9-9-9-9-10-10-12-12----------------|
A|--------------------------------------7-7-7-7--8-8--10-10----------------|
E|-------------------------------------------------------------------------|

VERSE RIFF

e|-------------------------------------------------------------------------|
B|-------------------------------------------------------------------------|
G|-------------------------------------------------------------------------|
D|-----7--7--7--7-7-7--5-5-5----3-3-3---2-3-3-2-1--------------------------|
A|-------------------------------------------------------------------------|
E|--4/5--5--5--5-5-5--3-3-3--3-1-1-1--1------------------------------------|


CHORUS

e|-------------------------------------------------------------------------|
B|-----------------------------------X-------------------------------------|
G|--5-5-5-5-5-5-5-5-5-5-5-5-5-5-5-5--X-------------------------------------|
D|--7-7-7-7-7-7-7-7-7-7-7-7-7-7-7-7--X--9-9-9-9-10-10-12-12----------------|
A|--------------------------------------7-7-7-7--8-8--10-10----------------|
E|-------------------------------------------------------------------------|

BRIDGE (2:03)

e|-------------------------------------------------------------------------|
B|-------------------------------------------------------------------------|
G|-----5--5----5--7-5------------------------------------------------------|
D|------------------------5------5------7----------------------------------|
A|----------------------------3-3--3-5-5-5---------------------------------|
E|--5-5--5--5-5--5-----3-3-3-3---------------------------------------------|

palm-mute the bass notes, listen to record for timing


end on this chord:
e|-----------------------------------------------------------------------------|
B|-----------------------------------------------------------------------------|
G|--5--------------------------------------------------------------------------|
D|--7--------------------------------------------------------------------------|
A|-----------------------------------------------------------------------------|
E|-----------------------------------------------------------------------------|

| /  slide up
| \  slide down
| h  hammer-on
| p  pull-off
| ~  vibrato
| +  harmonic
| x  Mute note
===============================================================================
Добавлено: 07.06.2012
Другие материалы по этой песне:

Страница создана 04.05.2012
http://primanota.ru/gossip/standing-in-the-way-of-control-chords.htm
Привет, Гость.
Предлагаем пройти революционный курс по гитаре.
Подарок от PrimaNota.Ru, забирай!