PrimaNota.ru - самый крупный в мире бесплатный архив песенных текстов, аккордов, табулатур и нот


Gossip - For Keeps - бас-таба, видео

Регистрация Запомнить меня
Войти через:  Facebook Google Twitter Vk Yandex Mail.ru

Gossip - For Keeps - бас-таба, видео

Печатать
Просмотров: 129
FOR KEEPS - Gossip
Tabbed By: CSC      Tuning: EADG

Riff 1 (0:05)
G|----------------------------------------------|
D|----------------------------------------------| x4
A|-------------/7h6-------------------/7h6------|
E|--2--44444-24----7-7\----2--44444-24----7-7\--|
 
Riff 2 (0:38)
G|--------------------------------------------------------------------|
D|-------------------6-4-6-4-6-4-6-4-------------------6-4-6-4-6-4-6--|
A|---7-7-7-7-6-6-6-6-------------------7-7-7-7-6-6-6-6----------------|
E|--------------------------------------------------------------------|

Riff 1 (0:53) x2

Riff 3 (1:09)
G|-------------------------------------------------------------|
D|-------------------6-4-6-4-6-4-6-----------------------------|
A|---7-7-7-7-6-6-6-6-----------------7>7>----------7>7>--------|
E|----------------------------------------7-9>9>-7------7-9>9--|

Riff 1 (1:24)  x3
Riff 2 (1:49)
Riff 1 (2:05)  x2

Riff 4 (2:21)
G|------------------------------------------------------------|
D|-------------------6-4-6-6-4-6-6----------------------------|
A|---7-7-7-7-6-6-6-6----------------7>7>----------7>7>--------|
E|--------------------------------7------7-9>9>-7------7-9>9--|

Riff 1 (2:36) 

Bridge (2:45)
G|---------------------------------------------|
D|----------------------------6-4-6-4-6-4-6-4--| x3
A|---77-77-77-77--66-66-66-66------------------|
E|---------------------------------------------|

Riff 6 (3:08)
G|-------------------------------------------|
D|-------------------------------------------|
A|----------/7h6-------------------/7h6------|
E|--44444-24----7-7\----2--44444-24----7-7\--|

Riff 1 (3:16) x5

Last note (3:56)
G|------|
D|------|
A|------|
E|--4>--|
Добавлено: 27.05.2012
Другие материалы по этой песне:
  • Аккорды и текст

Страница создана 27.05.2012
http://primanota.ru/gossip/for-keeps-chords.htm
Привет, Гость.
Предлагаем пройти революционный курс по гитаре.
Подарок от PrimaNota.Ru, забирай!