PrimaNota.ru - самый крупный в мире бесплатный архив песенных текстов, аккордов, табулатур и нот


Gossip - Dark Lines - бас-таба, видео

Регистрация Запомнить меня
Войти через:  Facebook Google Twitter Vk Yandex Mail.ru

Gossip - Dark Lines - бас-таба, видео

Печатать
Просмотров: 206
Авторы музыки: Nathan Howdeshell, Hannah Blilie, Beth Ditto
Авторы текста: Nathan Howdeshell, Hannah Blilie, Beth Ditto
THE GOSSIP - DARK LINES
ALBUM: STANDING IN THE WAY OF CONTROL (2006)
BASSIST: BRACE PAINE

VERSE 1  (x4)

E -------------------------------------------------|
A -----7-7-7-x-x---5p7-7-----5--7-7-7-x-x-x-x-x----|
D -----------------------5p4-----------------------|
G -------------------------------------------------|

VERSE 1b (x1)

E ------------------------------7-7-7-x-x-x--0-0---|
A -----7-7-7-x-x---5p7-7-----5---------------------|
D -----------------------5p4-----------------------|
G -------------------------------------------------|

VERSE 1  (x3)

E -------------------------------------------------|
A -----7-7-7-x-x---5p7-7-----5--7-7-7-x-x-x-x-x----|
D -----------------------5p4-----------------------|
G -------------------------------------------------|

VERSE 2  (x1)

E -------------------------------------------------|
A -------------------------------------------------|
D -----7-7-7*-----5p7-7*-----5--7-7-7*-------------|
G -----------------------5p4-----------------------|

E -------------------------------------------------|
A -------------------------------------------------|
D -----7-7-7*-----5p7-7*-----5--7-7-7*--5-4*-------|
G -----------------------5p4-----------------------|

AND THEN REPEAT THE SEQUENCE...
verse 1  (x4)
verse 1b (x1)
verse 1  (x4)
verse 2  (x1)

in the outro repeat the verse 1 untill the end
BEAUTIFUL SONG

*=HOLD (LET RING THE NOTE)
tabbed by JAH WOBBLE IS GOD
Добавлено: 28.05.2012
Другие материалы по этой песне:
  • Аккорды и текст

Страница создана 28.05.2012
http://primanota.ru/gossip/dark-lines-chords.htm
Привет, Гость.
Предлагаем пройти революционный курс по гитаре.
Подарок от PrimaNota.Ru, забирай!