PrimaNota.ru - самый крупный в мире бесплатный архив песенных текстов, аккордов, табулатур и нот


Gossip - Eyes Open - таба, видео

Регистрация Запомнить меня
Войти через:  Facebook Google Twitter Vk Yandex Mail.ru

Gossip - Eyes Open - таба, видео

Печатать
Просмотров: 133
Авторы музыки: Nathan Howdeshell, Hannah Blilie, Beth Ditto
Авторы текста: Nathan Howdeshell, Hannah Blilie, Beth Ditto
Tab by: Kote
Tuning: Drop D
The whole song is about a "D to E" riff on the D string. 
Anyway, here's my version. Comments, suggestion and whatever to -kotesupermoto@hotmail.it-.
Cheers.

Intro ("v" stands for "vibrato"; h for "hammer on"; pick every note in the slide thing..)
e|---------------------------------------|
B|---------------------------------------|
G|---------------------------------------|
D|-2v-2---2v-2---2v-2---2v-2--2/5v-------|
A|---------------------------------------|
D|---------------------------------------|

e|------------------------------------------------------------------------|
B|------------------------------------------------------------------------|
G|------------------------------------------------------------------------|
D|--12\9/12\7-9-0h2-2-2-2-2--0-0--0h5-5-5-5-5-0-0--0h2-2-2-2-2-2-2-2-2-2--|
A|------------------------------------------------------------------------|
D|------------------------------------------------------------------------|

Main Riff 
(i think it's a one-note riff but you can actually do 
the E power chord after the hammer on)

e|----------------------------|
B|----------------------------|
G|----------------------------|   several times, then "D riff"
D|-------------2---2---2------|
A|----------------------------|
D|---0-0--0h2-----------------|

D riff

e|------------------------------------------------------|
B|------------------------------------------------------|
G|------------------------------------------------------| and the main riff again
D|---12-12-12-12-12-12-----------------------2---2---2--|
A|---12-12-12-12-12-12----------------------------------|
D|---12-12-12-12-12-12---17-17-17-17-17-0h2-------------|

Bridge

e|-------------------------------|
B|-------------------------------|
G|-------------------------------| followed by the main riff + D riff until the end
D|---12\9/12\7-9-0h2-2-2-2-2-----|
A|-------------------------------|
D|-------------------------------|
Добавлено: 24.04.2012
Другие материалы по этой песне:
  • Аккорды и текст

Страница создана 24.04.2012
http://primanota.ru/gossip/eyes-open-chords.htm
Привет, Гость.
Предлагаем пройти революционный курс по гитаре.
Подарок от PrimaNota.Ru, забирай!