PrimaNota.ru - самый крупный в мире бесплатный архив песенных текстов, аккордов, табулатур и нот


Gossip - Listen Up - бас-таба, видео

Регистрация Запомнить меня
Войти через:  Facebook Google Twitter Vk Yandex Mail.ru

Gossip - Listen Up - бас-таба, видео

Печатать
Просмотров: 205
Авторы музыки: Nathan Howdeshell, Gossip, Hannah Blilie, Beth Ditto
Авторы текста: Nathan Howdeshell, Gossip, Hannah Blilie, Beth Ditto
-------------------------------------------------------------------------------
			     Listen Up! - The Gossip
-------------------------------------------------------------------------------

I know there's already a few bass tabs to this song, but none of them seem to have 
the chorus tabbed accuratley. This is the best I can do.

Tabbed By : Jess aka Bluestruck

Tuning: Standard (EADG)

Intro/Verse/Pre Chorus
G|---------------------------------------------------------------------------|
D|---------------------------------------------------------------------------|
A|----------------------------10----12---------------------------------------|
E|-12-12-12-12-12-12-12-12-12----10------------------------------------------|
Repeat x3 per verse

At the end of each verse it ends like this:
G|---------------------------------------------------------------------------|
D|---------------------------------------------------------------------------|
A|---------------------------------------------------------------------------|
E|-12-12-12-12-12-12-12------------------------------------------------------|

Chorus
G|---------------------------------------------------------------------------|
D|------------------------------------------------------5h7------------------|
A|-------------------------------------------10-10---------------------------|
E|-12-12-12-12-12-12-12-12-12-12-12-12-10h12-------8h10----------------------|
Repeat x2

And that's pretty much the entire song right there, hope this tab helps you :)

| /  slide up
| \  slide down
| h  hammer-on
| p  pull-off
| ~  vibrato
| +  harmonic
| x  Mute note
===============================================================================
Добавлено: 30.06.2012
Другие материалы по этой песне:

Страница создана 03.04.2012
http://primanota.ru/gossip/listen-up-chords.htm
Привет, Гость.
Предлагаем пройти революционный курс по гитаре.
Подарок от PrimaNota.Ru, забирай!